Oops, an error
Loading. Please wait.

Born Dead Tab

version 1
version 1

Whole song

8,258 views 12 this week
7 commentsread comments
1 2 3 4 5
x 5
add to favorites
launch autoscroll
font size
0
reset
how to read this tab
guitar tuner
Autoscroll
slow
fast
+/-
esc
set tempo
stop
Help us to improve Ultimate-Guitar.com Take our survey!
×
Author
Song: Born Dead (feat. Scott Wade)
Band: Silverstein
Tuning: Down 1/2 Step

This isn't all of the guitars, this is the tab for what i play in my cover of the song on youtube.

http://www.youtube.com/watch?v=JFVzLDLMDc4

if you use this tab you at least owe me the time to view, rate, and comment on my video.
think of the time i'm saving you by tabbing this.

Also, i put everything in order.  i even repeated parts when they are repeated in the 
so if you just follow this part by
part you'll know the whole song as i play it in my video. Pay attention to side notes.

E--------------------------------------------------------------|
B--------------------------------------------------------------|
G--------------------------------------------------------------|
D--------------------------------------------------------9~~~~~|
A-------7h10p7-6h9p6-----7h10p7-9h12p9-----7h10p7-6h9p6--9~~~~~|
E---0-0--------------0-0---------------0-0---------------7~~~~~|
PM  . .              . .               . .

E------------------------------------------------------------------|
B------------------------------------------------------------------|
G--12-12---12-11-11---11-7-7---7-7-7---7-5-5-4-5---5-8-8-9-11--11--|
D---x--x----x--x--x----x-x-x---x-x-x---x-x-x-x-x---x-x-x-x--x---x--|
A--10-10---10--9--9----9-5-5---5-5-5---5-3-3-2-3---3-6-6-7--9---9--|
E------------------------------------------------------------------|

E----------------------------------------------------------------------|
B----------------------------------------------------------------------|
G--12-12---12-11-11---11-7-7---7-7-7---7-x-5--5-5-5---5-x-8--8-8-8--8--|
D---x--x----x--x--x----x-x-x---x-x-x---x-x-x--x-x-x---x-x-x--x-x-x--x--|
A--10-10---10--9--9----9-5-5---5-5-5---5-x-3--3-3-3---3-x-6--6-6-6--6--|
E----------------------------------------------------------------------|

E------------------------------------------------------------------|
B------------------------------------------------------------------|
G--12-12---12-11-11---11-7-7---7-7-7---7-5-5-4-5---5-8-8-9-11--11--|
D---x--x----x--x--x----x-x-x---x-x-x---x-x-x-x-x---x-x-x-x--x---x--|
A--10-10---10--9--9----9-5-5---5-5-5---5-3-3-2-3---3-6-6-7--9---9--|
E------------------------------------------------------------------|

E----------------------------------------------------------------------|
B----------------------------------------------------------------------|
G--12-12---12-11-11---11-7-7---7-7-7---7-5--5--5--5--8--8--8--8--------|
D---x--x----x--x--x----x-x-x---x-x-x---x-x--x--x--x--x--x--x--x---2~~~~|
A--10-10---10--9--9----9-5-5---5-5-5---5-3--3--3--3--6--6--6--6---2~~~~|
E-----------------------------------------------------------------0~~~~|

E---------------------------------------------------------------------------|
B---------------------------------------------------------------------------|
G--------------------------------4-4--4--4-4--------------------------------|
D-/5-4---2-2-2---5-5-5---7-7-7---4-4--4--4-4-2-2-2---5-5-5---7-7-7---9-9-9~~|
A------5-2-2-2---5-5-5---7-7-7---2-2--2--2-2-2-2-2---5-5-5---7-7-7---9-9-9~~|
E--------0-0-0---3-3-3---5-5-5---------------0-0-0---3-3-3---5-5-5---7-7-7~~|

E-------------------------------------------------------------|
B-------------------------------------------------------------|
G-------------------------------------------------------------|
D--------------------------------10--10--10--10--10-10-10-10--|
A---10--10--10--10--10-10-10-10--12--12--12--12--12-12-12-12--|
E---12--12--12--12--12-12-12-12-------------------------------|
PM               .   .  .  .  .               .   .  .  .  .

E-------------------------------------------------------------|
B-------------------------------------------------------------|
G-------------------------------------------------------------|
D--------------------------------12-12--12-12-12--12----------|
A----9---9---9---9---9--9--9--9--10-10--10--9--9---9----------|
E---10--10--10--10--10-10-10-10-------------------------------|
PM               .   .  .  .  .

E-------------------------------------------------------------|
B-------------------------------------------------------------|
G-------------------------------------------------------------|
D--------------------------------10--10--10--10--10-10-10-10--|
A---10--10--10--10--10-10-10-10--12--12--12--12--12-12-12-12--|
E---12--12--12--12--12-12-12-12-------------------------------|
PM               .   .  .  .  .               .   .  .  .  .

E-------------------------------------------------------------|
B-------------------------------------------------------------|
G-------------------------------------------------------------|
D---------------------------------5-5--5-4-4------------------|
A----9---9---9---9---9--9--9--9---5-5--5-5-5------------------|
E---10--10--10--10--10-10-10-10---3-3--3-2-2------------------|
PM               .   .  .  .  .

E--0-0--0--0-0--0-0--0-0--0-0-0--0--0-0-----------|
B--1-1--1--1-1--0-0--3-3--3-1-1--1--1-1-----------|
G--0-0--0--0-0--0-0--2-2--2-0-0--0--0-0-----------|  play this
D--2-2--2--2-2--2-2--0-0--0-2-2--2--2-2--5-7-9----|  twice
A--3-3--3--3-3--2-2---------3-3--3--3-3--5-7-9----|
E---------------0-0----------------------3-5-7----|
   |----C----|  Em   |--D--||----C----------------|

E---------------------------------------------------------------------|
B---------------------------------------------------------------------|
G--------------------------4-4--4--4-4--------------------------------|
D--2-2-2---5-5-5---7-7-7---4-4--4--4-4-2-2-2---5-5-5---7-7-7---9-9-9~~|
A--2-2-2---5-5-5---7-7-7---2-2--2--2-2-2-2-2---5-5-5---7-7-7---9-9-9~~|
E--0-0-0---3-3-3---5-5-5---------------0-0-0---3-3-3---5-5-5---7-7-7~~|

E-------------------------------------------------------------|
B-------------------------------------------------------------|
G-------------------------------------------------------------|
D--------------------------------10--10--10--10--10-10-10-10--|
A---10--10--10--10--10-10-10-10--12--12--12--12--12-12-12-12--|
E---12--12--12--12--12-12-12-12-------------------------------|
PM               .   .  .  .  .               .   .  .  .  .

E-------------------------------------------------------------|
B-------------------------------------------------------------|
G-------------------------------------------------------------|
D--------------------------------12-12--12-12-12--12----------|
A----9---9---9---9---9--9--9--9--10-10--10--9--9---9----------|
E---10--10--10--10--10-10-10-10-------------------------------|
PM               .   .  .  .  .

E-------------------------------------------------------------|
B-------------------------------------------------------------|
G-------------------------------------------------------------|
D--------------------------------10--10--10--10--10-10-10-10--|
A---10--10--10--10--10-10-10-10--12--12--12--12--12-12-12-12--|
E---12--12--12--12--12-12-12-12-------------------------------|
PM               .   .  .  .  .               .   .  .  .  .

E-------------------------------------------------------------|
B-------------------------------------------------------------|
G-------------------------------------------------------------|
D---------------------------------5-5--5-4-4------------------|
A----9---9---9---9---9--9--9--9---5-5--5-5-5------------------|
E---10--10--10--10--10-10-10-10---3-3--3-2-2------------------|
PM               .   .  .  .  .

E--0-0--0--0-0--0-0--0-0--0-0-0--0--0-0-----------|
B--1-1--1--1-1--0-0--3-3--3-1-1--1--1-1-----------|
G--0-0--0--0-0--0-0--2-2--2-0-0--0--0-0-----------|  play this
D--2-2--2--2-2--2-2--0-0--0-2-2--2--2-2--5-7-9----|  twice
A--3-3--3--3-3--2-2---------3-3--3--3-3--5-7-9----|
E---------------0-0----------------------3-5-7----|
   |----C----|  Em   |--D--||----C----------------|

E------------------------------------------|
B------------------------------------------|
G------------------------------------------|
D--9-9-9---5-7-9--9-9-9---5-7-9--9-9-9--9--|
A--9-9-9---5-7-9--9-9-9---5-7-9--9-9-9--9--|
E--7-7-7---3-5-7--7-7-7---3-5-7--7-7-7--7--|

E---------------------------------------------------|
B---------------------------------------------------|
G---------------------------------------------------|  Play this
D------------------------------4h5-5/7-5-4-5p4-5/7--|  twice
A----------5h7-5~~--0-0-3--0-0----------------------|
E---0--0-0------------------------------------------|
PM     . .          . .    . .

E---------------------------------------------------|
B---------------------------------------------------|
G---------------------------------------------------|  Play this
D----------4h5-4~~-------------5h7-7/9-7-5-7p5-4h5--|  twice
A-------------------0-0-3--0-0----------------------|
E---0--0-0------------------------------------------|
PM     . .          . .    . .

E----------------------------------------------------|
B----------------------------------------------------|
G----------------------------------------------------|
D--2-----2-2---2-----2-2---2---2---2-2---2---5-5-5~~~|
A--2-----2-2---2-----2-2---2---2---2-2---2---3-3-2~~~|
E--0-----0-0---0-----0-0---0---0---0-0---0-----------|

E-----------------------------------------------------|
B-----------------------------------------------------|
G-----------------------------------------------------|
D--2-----2-2---2-----2-2---2---2---2-2---2---5-5-4-4--|
A--2-----2-2---2-----2-2---2---2---2-2---2---5-5-5-5--|
E--0-----0-0---0-----0-0---0---0---0-0---0---3-3-2-2--|

E--0-0--0--0-0--0-0--0-0--0-0-0--0--0-0-----------|
B--1-1--1--1-1--0-0--3-3--3-1-1--1--1-1-----------|
G--0-0--0--0-0--0-0--2-2--2-0-0--0--0-0-----------|  play this
D--2-2--2--2-2--2-2--0-0--0-2-2--2--2-2--5-7-9----|  four times
A--3-3--3--3-3--2-2---------3-3--3--3-3--5-7-9----|
E---------------0-0----------------------3-5-7----|
   |----C----|  Em   |--D--||----C----------------|

E------------------------------------------------------|
B------------------------------------------------------|
G------------------------------------------------------|
D--9-9-9---5-7-9--9-9-9---5-7-9--9-9-9-~~~~~~~~~~~~~~~~|
A--9-9-9---5-7-9--9-9-9---5-7-9--9-9-9-~~~PICK-SLIDE~~~|
E--7-7-7---3-5-7--7-7-7---3-5-7--7-7-7-~~~~~~~~~~~~~~~~|

E------------------------------------------------------------------|
B------------------------------------------------------------------|
G--12-12---12-11-11---11-7-7---7-7-7---7-5-5-4-5---5-8-8-9-11--11--|
D---x--x----x--x--x----x-x-x---x-x-x---x-x-x-x-x---x-x-x-x--x---x--|
A--10-10---10--9--9----9-5-5---5-5-5---5-3-3-2-3---3-6-6-7--9---9--|
E------------------------------------------------------------------|

E----------------------------------------------------------------------|
B----------------------------------------------------------------------|
G--12-12---12-11-11---11-7-7---7-7-7---7-x-5--5-5-5---5-x-8--8-8-8--8--|
D---x--x----x--x--x----x-x-x---x-x-x---x-x-x--x-x-x---x-x-x--x-x-x--x--|
A--10-10---10--9--9----9-5-5---5-5-5---5-x-3--3-3-3---3-x-6--6-6-6--6--|
E----------------------------------------------------------------------|

E------------------------------------------------------------------|
B------------------------------------------------------------------|
G--12-12---12-11-11---11-7-7---7-7-7---7-5-5-4-5---5-8-8-9-11--11--|
D---x--x----x--x--x----x-x-x---x-x-x---x-x-x-x-x---x-x-x-x--x---x--|
A--10-10---10--9--9----9-5-5---5-5-5---5-3-3-2-3---3-6-6-7--9---9--|
E------------------------------------------------------------------|

E----------------------------------------------------------------|
B----------------------------------------------------------------|
G--12-12---12-11-11---11-7-7---7-7-7---7-5--5--5--5--8--8--8--8--|
D---x--x----x--x--x----x-x-x---x-x-x---x-x--x--x--x--x--x--x--x--|
A--10-10---10--9--9----9-5-5---5-5-5---5-3--3--3--3--6--6--6--6--|
E----------------------------------------------------------------|

E------------------------|
B------------------------|
G------------------------|
D---------------------2--|
A-------7h10p7-6h9p6--2--|
E---0-0---------------0--|
PM  . .

and that's it.  I would advise looking at these tabs and playing my video on youtube to 
how it's supposed to sound.
Suggest correction
comments
print report bad tab
7 comments total. Showing first comments.
+1 reply
che0 10 May 28, 2009 06:55 PM

your right you saved a lot of time

0 reply
Sam Rulez D00d 928 Jun 29, 2009 11:25 AM

perfect tab. =)

0 reply
danny graglia 10 Jul 23, 2009 02:58 PM

hey thanks for the help. i try the breakdown but i think there isnt' play "A", i think it's "Cm", chek out :)

guest
You may want to rate the tab now too:
select rating
Wanna post a correction for this tab? Suggest correction