Oops, an error
Loading. Please wait.

Broken Stars Bass Tab

version 1
version 1

Whole song

Interactive

813 views 1 this week
no commentswrite comment
1 2 3 4 5
3 more votes to show rating
add to favorites
launch autoscroll
font size
0
reset
guitar tuner
Autoscroll
slow
fast
+/-
esc
set tempo
stop
Help us to improve Ultimate-Guitar.com Take our survey!
×
Author
Tuning
C# G# C# F# A# D#
+++++++++++++++++++++++++++++
| Silverstein- Broken Stars |
+++++++++++++++++++++++++++++


"My mind's made up..."


Tuning: Drop C# (C#ADG)



Intro
"Shooting daggers at me..."
1.
G||------------------------------------------------------------------|
D||------------------------------------------------------------------|
A||---------------------------------00-000-000-000-022-222-233-333-3-|
C#|-00-000-000-000-033-333-333-333-3---------------------------------|

"Dont be so proud..."
2.
G||--------------------------------------------------------------------|
D||--------------------------------------------------------------------|
A||---------------------------------00-000-000-000-0-------------------|
C#|-00-000-000-000-033-333-333-333-3-----------------33333333-22222222-|

"You wont embrace this..."
3.
G||-------------------------------------------------------------|
D||-------------------------------------------------------------|
A||-44-4-444-4-444-22-2-222-2-222-00-0-000-0-000----------------|
C#|----------------------------------------------77-7-777-7-777-|

Verse
"Broken stars..."
4.
G||-------------------------------------------------------------------|
D||-------------------------------------------------------------------|
A||---------------0-00000000000000---------------------------2-222222-|
C#|-0~--0x-------------------------3-33333333333333-7-777777----------|

"I know you'll never change..."
5.
G||---------------------------------------------------------------------|
D||---------------------------------------------------------------------|
A||------------------0-00000000000000-----------------------------------|
C#|-0-00000000000000------------------3-33333333333333-7-77777777777777-|

Chorus
"My mind's made up..."
6.
G||----------------------------------------------------------------------|
D||----------------------------------------------------------------------|
A||---------------------------------0-0000000-00000000-------------------|--x2
C#|-0~--0x--------3-3333333-3333333--------------------33333333-22222222-|

Outro
"Fall..."
7.
G||------------------|
D||------------------|
A||-0x---------------|
C#|------------------|

Verse
"We cast a single shadow..."
8.
G||----------------------------------------------------------------------|
D||----------------------------------------------------------------------|
A||------------------0-00000000000000---------------------------2-222222-|
C#|-0-00000000000000------------------3-33333333333333-7-777777----------|

"But you need light to see..."
9.
G||---------------------------------------------------------------------|
D||---------------------------------------------------------------------|
A||------------------0-00000000000000-----------------------------------|
C#|-0-00000000000000------------------3-33333333333333-7-77777777777777-|

Chorus
"My mind's made up..."
10.
G||----------------------------------------------------------------------|
D||----------------------------------------------------------------------|
A||---------------------------------0-0000000-00000000-------------------|--x2
C#|-0~--0x--------3-3333333-3333333--------------------33333333-22222222-|

Bridge
"Fall into the whole..."
11.
G||-----------------------------------------------------------------------|
D||---------------------------------------------------------------6666666-|
A||-0-000000000000-2-4-4444-2-4-4444-2-0-000000000000-2-------------------|
C#|-----------------------------------------------------7-7777777---------|

"Ill find the strenght..."
12.
G||------------------------------------------------------------------------------------------|
D||------------------------------------------------------------------------------------------|
A||-0-000000000000-2-4-4444-2-4-4444-2-0-000000000000-2--------2--------2--------2-----------|
C#|-----------------------------------------------------7-7777---7-7777---7-7777---7x--------|

Chorus
"My mind's made up..."
13.
G||----------------------------------------------------------------------|
D||----------------------------------------------------------------------|
A||---------------------------------0-0000000-00000000-------------------|--x2
C#|-0~--0x--------3-3333333-3333333--------------------33333333-22222222-|

"Fall..."
14.
G||---------------------------|
D||---------------------------|
A||---------------------------|
C#|-0~------------------------|

Outro
"You!!..."
15.
G||---------------------------------------|
D||---------------------------------------|
A||---------------------------0~----2~----|--x2
C#|-0x------------------------------------|

16.
G||----------------------------------------------------|
D||-221----------4421---------221----------------------|
A||----4-------------------------4---------0~----2~----|
C#|------000-000------000-000------000-000-------------|

17.
G||----------------------------------------------------|
D||-221----------4421---------221----------------------|
A||----4-------------------------4---------0~----3~----|
C#|------000-000------000-000------000-000-------------|

18.
G||----------------------------------------------------|
D||-221----------4421---------221----------------------|
A||----4-------------------------4---------0~----2~----|
C#|------000-000------000-000------000-000-------------|

19.
G||-----------------------------------------------------------------------------|
D||-221----------4421---------221-----------------------------------------------|
A||----4-------------------------4---------0~----2~----0~----2~----0~----2~-----|
C#|------000-000------000-000------000-000-----------------------------------00-|

20.
G||-----------------------------|
D||-----------------------------|
A||-----------------------------|
C#|-0~--------------------------|


Please rate thanks!!


Lyrics:

Shooting daggers at me
Letting it be known you're not impressed
I never fail at failing all your tests
Don't be so proud
'Cause you're still so scared to be alone
And you can't change your mind

You won't embrace this
But you'll accept this
You can't let go

Broken stars
By a single shattered mirror
Seven years of trust
I know you'll never change for anyone
A gold heart never rusts

My mind's made up
And I'll know I'll do the right thing
Get up and stand tall
My mind's made up
Why am I scared I won't be able
To get up when I fall

We cast a single shadow for so long now
It's so hard to see the sun at all (the sun at all)
But you need light to see
the writing on the wall

Into the hole I've made
I'll place myself alone
I'll find the strength within myself
To climb out on my own, own!

My mind's made up
And I'll know I'll do the right thing
Get up and stand tall
My mind's made up
Why am I scared I won't be able
To get up when I fall

You!!
These broken stars
Cant be put back in the sky
I can still feel your scars!
I won't, I won't let them die!
We won't, we won't fade away!
And now I will set this all ablaze 



+++++++++++++++++++++++++++++++++
| Raileff                       |
| Underground__Dora@Hotmail.Com |
+++++++++++++++++++++++++++++++++
Suggest correction
Give kudos to tab author, rate the tab!
1 2 3 4 5
comments
print report bad tab
guest
You may want to rate the tab now too:
select rating
Wanna post a correction for this tab? Suggest correction