Oops, an error
Loading. Please wait.

Broken Stars Tab

version 1
version 1

Intro

Whole song

Interactive

1,193 views 3 this week
2 commentsread comments
1 2 3 4 5
2 more votes to show rating
add to favorites
launch autoscroll
font size
0
reset
how to read this tab
guitar tuner
Autoscroll
slow
fast
+/-
esc
set tempo
stop
Help us to improve Ultimate-Guitar.com Take our survey!
×
artist:silverstein
album:shipwreck in the sand
song:broken stars


tuning: standard

legend:

     . - palm mute
     ~ - let it ring
     x - dead string


NOTE: this is the intro/verse part only.i tabbed it cause somethings wrong in some tabs 
there...

intro/verse:

 gtr. 1: (shooting daggers at me...)

e|---------------------------------------------------------------------------|
B|---------------------------------------------------------------------------|
G|---------------------------------------------------------------------------|
D|--11-11-11-11-11-11-11-11-11-11-11-11-11-11---2-2-2-2-2-2-2-2-2-2-2-2-2-2--|
A|--11-11-11-11-11-11-11-11-11-11-11-11-11-11---2-2-2-2-2-2-2-2-2-2-2-2-2-2--|
E|--9--9--9--9--9--9--9--9--9--9--9--9--9--9----0-0-0-0-0-0-0-0-0-0-0-0-0-0--|
    .  .  .  .  .  .  .  .  .  .  .  .  .  .    . . . . . . . . . . . . . .

e|-----------------------------------------------------------|
B|-----------------------------------------------------------|
G|-----------------------------------------------------------|
D|--7-7-7-7-7-7-7-7-7-7-7-7-7-7---9-9-9-9-9-9--6-6-6-6-6-6---|
A|--7-7-7-7-7-7-7-7-7-7-7-7-7-7---9-9-9-9-9-9--6-6-6-6-6-6---|
E|--5-5-5-5-5-5-5-5-5-5-5-5-5-5---7-7-7-7-7-7--4-4-4-4-4-4---|
    . . . . . . . . . . . . . .   . . . . . .  . . . . . .

then : (don't be so proud...)

e|---------------------------------------------------------------------------|
B|---------------------------------------------------------------------------|
G|---------------------------------------------------------------------------|
D|--11-11-11-11-11-11-11-11-11-11-11-11-11-11---2-2-2-2-2-2-2-2-2-2-2-2-2-2--|
A|--11-11-11-11-11-11-11-11-11-11-11-11-11-11---2-2-2-2-2-2-2-2-2-2-2-2-2-2--|
E|--9--9--9--9--9--9--9--9--9--9--9--9--9--9----0-0-0-0-0-0-0-0-0-0-0-0-0-0--|
    .  .  .  .  .  .  .  .  .  .  .  .  .  .    . . . . . . . . . . . . . .

e|-----------------------------------------------------------|
B|-----------------------------------------------------------|
G|-----------------------------------------------------------|
D|--7-7-7-7-7-7-7-7-7-7-7-7-7-7---9-9-9-9-9-9-9-9-9-9-9-9-9--|
A|--7-7-7-7-7-7-7-7-7-7-7-7-7-7---9-9-9-9-9-9-9-9-9-9-9-9-9--|
E|--5-5-5-5-5-5-5-5-5-5-5-5-5-5---7-7-7-7-7-7-7-7-7-7-7-7-7--|
    . . . . . . . . . . . . . .   .

 gtr. 2: (shooting daggers at me...)

e|------------------------------------------------|
B|------------------------------------------------|
G|--9~--------9~--------6~---9--11--8~------------|
D|--x~---9~---x~---9~---x~---x--x---x~------------|
A|--7~---x~---7~---x~---4~---7--9---6~------------|
E|-------7~--------7~-----------------------------|


then... (don't be so proud...)

e|-------------------------------------------|
B|-------------------------------------------|
G|--9~--------14~---16~---13~---16~---11~----|
D|--x~---9~---x-~---x-~---x-~---x-~---x-~----|
A|--7~---x~---12~---14~---11~---14~---9-~----|
E|-------7~----------------------------------|

___________________________________________________________________________

   that's it...it's quite correct,i'm 97% sure of it..hahah...please trust me.
this sounds the same in the recording...sorry if i only put the intro/verse part.
i don't have much time to complete the song,ahe...    [dr+pd++d]
___________________________________________________________________________

that's all,thanks
dropdead rocks!
LONG LIVE EARTH!XD
Suggest correction
Give kudos to tab author, rate the tab!
1 2 3 4 5
comments
print report bad tab
2 comments total.
+1 reply
deadstring_3000 634 Apr 13, 2009 10:42 PM

hehehe...this is correct ,especially the guitar 2 part...
DROPDEAD!!!

+1 reply
noobierulez27 10 Apr 14, 2009 08:39 AM

you're amazing...

this is the correct tab.

dropdead rules

guest
You may want to rate the tab now too:
select rating
Wanna post a correction for this tab? Suggest correction