Oops, an error
Loading. Please wait.

Broken Stars Tab

version 1
version 1

Whole song

Interactive

9,466 views 3 this week
1 commentread comment
1 2 3 4 5
please rate
add to favorites
launch autoscroll
font size
0
reset
how to read this tab
guitar tuner
Autoscroll
slow
fast
+/-
esc
set tempo
stop
Help us to improve Ultimate-Guitar.com Take our survey!
×
Author
Difficulty
Tuning
intermediate
C# G# C# F# A# D#
---------------------------------------------------------------------------
BROKEN STARS - Silverstein
---------------------------------------------------------------------------

Tuning: C#G#C#F#A#D#

*UPDATED JULY 14, 2010* Fixed chords in chorus part 1, re-added the fill that 
somehow got deleted. 

INTRO (0:00-0:17) strum last two chords
D#|--------------------------------------------------------------|
A#|--------------------------------------------------------------|
F#|-10~--12-5~--10-7~--10-12~--9~--10~--12-17~--19-15~--17-14-12-|
C#|--x~---x-x~---x-x~---x--x~--x~---x~---x--x~---x--x~---x--x--x-|
G#|--8~--10-3~---8-5~---8-10~--7~---8~--10-15~--17-13~--15-12-10-|
C#|--------------------------------------------------------------|

(0:18-0:27) listen for strumming
D#|--------------------------------------|
A#|--------------------------------------|
F#|-7--9--10--7--9--10--7--9--10--12--9--|
C#|-x--x---x--x--x---x--x--x---x---x--x--|
G#|-5--7---8--5--7---8--5--7---8--10--7--|
C#|--------------------------------------|

FILL (0:28-0:48)
D#|------------------------------------|
A#|------------------------------------|
F#|------------------------------------|
C#|-8-------10---8-----------------0-0-|
G#|-8---8------------12---10---8p7-0-0-|
C#|-8-0---0----0---0----0----0-----0-0-|
      .   .    .   .    .    .

CHORUS PART 1 (0:31-0:49)
D#|-----------------------------------------------------------------|
A#|-----------------------------------------------------------------|
F#|-----------------------------------------10----------------------|
C#|---------3p2-8-----------------------3p2-10-10-10-10-10-10-10-10-|
G#|-3p0-2p0-----8-8-8-8-8-8-8-8-3p0-2p0------8--8--8--8--8--8--8--8-|
C#|-------------8-8-8-8-8-8-8-8-------------------------------------|
                  . . . . . . .                 .  .  .  .  .  .  . 

D#|-----------------------------------------------|
A#|-----------------------------------------------|
F#|-14-12-10-9------------------------------------|
C#|--x--x--x-x-7---------------10-----------------|
G#|-12-10--8-7-7-7-7-7-7-7-7-7-10-10-10-10--------|
C#|------------7-7-7-7-7-7-7-7-10-10-10-10-7h10p7-|
                 . . . . . . .     .  .  .

D#|-----------------------------------------------------------------|
A#|-----------------------------------------------------------------|
F#|-----------------------------------------------------------------|
C#|-12------------------------------3p2-8-----------------------3p2-|
G#|-12-12-12-12-12-12-12-12-3p0-2p0-----8-8-8-8-8-8-8-8-3p0-2p0-----|
C#|-12-12-12-12-12-12-12-12-------------8-8-8-8-8-8-8-8-------------|
        .  .  .  .  .  .  .               . . . . . . .

D#|------------------------------------------------------------|
A#|------------------------------------------------------------|
F#|-10-10-10-10-10-10-10-10-10--9--9--9--9--9--9--9--9--9------|
C#|-10-10-10-10-10-10-10-10-10--9--9--9--9--9--9--9--9--9--0-0-|
G#|--8--8--8--8--8--8--8--8--8--7--7--7--7--7--7--7--7--7--0-0-|
C#|--------------------------------------------------------0-0-|
listen for strumming

CHORUS PART 2 (0:50-1:06)
D#|---------------------|
A#|---------------------|
F#|-14--15--14--12------|
C#|--x---x---x---x--0-0-|
G#|-12--13--12--10--0-0-| x2
C#|-----------------0-0-|

1:07-1:10 REPEAT FILL

1:11-1:45 REPEAT CHORUS PART 1, 2

INTERLUDE (1:46-2:05)
D#|------------------------------------------|
A#|------------------------------------------|
F#|-15-15-14-14-12-12-10-10-12-12-10-10-9-10-|
C#|--x--x--x--x--x--x--x--x--x--x--x--x-x--x-|
G#|-13-13-12-12-10-10--8--8-10-10--8--8-7--8-|
C#|------------------------------------------|

D#|-----------------------------------|
A#|-----------------------------------|
F#|-10-10-10-10-10-9-10-10-10-10-10-9-|
C#|--x--x--x--x--x-x--x--x--x--x--x-x-|
G#|--8--8--8--8--8-7--8--8--8--8--8-7-|
C#|-----------------------------------|

D#|------------------------------------------|
A#|------------------------------------------|
F#|-15-15-14-14-12-12-10-10-12-12-10-10-9-10-|
C#|--x--x--x--x--x--x--x--x--x--x--x--x-x--x-|
G#|-13-13-12-12-10-10--8--8-10-10--8--8-7--8-|
C#|------------------------------------------|

D#|------------------------------------|
A#|------------------------------------|
F#|-9-9-9-9-9-9-9-14-14-14-14-14-14-14-|
C#|-x-x-x-x-x-x-x--x--x--x--x--x--x--x-|
G#|-7-7-7-7-7-7-7-12-12-12-12-12-12-12-|
C#|------------------------------------|

D#|------------------------------------------|
A#|------------------------------------------|
F#|-15-15-14-14-12-12-10-10-12-12-10-10-9-10-|
C#|--x--x--x--x--x--x--x--x--x--x--x--x-x--x-|
G#|-13-13-12-12-10-10--8--8-10-10--8--8-7--8-|
C#|------------------------------------------|

D#|----------------------------------------------------------|
A#|----------------------------------------------------------|
F#|-9-9-9-9-9-10-9-9-9-9-9-12-9-9-9-9-9-12-14-14-14-14-14-14-|
C#|-x-x-x-x-x--x-x-x-x-x-x--x-x-x-x-x-x--x--x--x--x--x--x--x-|
G#|-7-7-7-7-7--8-7-7-7-7-7-10-7-7-7-7-7-10-12-12-12-12-12-12-|
C#|----------------------------------------------------------|

2:06-2:25 REPEAT CHORUS PART 1, 2

END CHORUS WITH (2:26-2:30)
D#|----|
A#|----|
F#|----|
C#|-0~-|
G#|-0~-|
C#|-0~-|

BREAKDOWN (2:31-3:07)
D#|-------------------------------------------------|
A#|-------------------------------------------------|
F#|-10-10-9-7---------------12-12-10-9--------------|
C#|--x--x-x-x----------------x--x--x-x--------------|
G#|--8--8-7-5-0-0-0--0-0-0--10-10--8-7-0-0-0--0-0-0-|
C#|-----------0-0-0--0-0-0-------------0-0-0--0-0-0-|
              . . .  . . .             . . .  . . .
D#|------------------------------|
A#|------------------------------|
F#|-10-10-9-7--------------------|
C#|--x--x-x-x---------------8-10-|
G#|--8--8-7-5-0-0-0--0-0-0--8-10-|
C#|-----------0-0-0--0-0-0--8-10-|
              . . .  . . .

BREAKDOWN HARMONY
D#|--------------------------------------|
A#|--------------------------------------|
F#|-14-14-12-10--------------15-15-14-12-|
C#|--x--x--x--x---------------x--x--x--x-|
G#|-12-12-10--8-0-0-0--0-0-0-13-13-12-10-|
C#|-------------0-0-0--0-0-0-------------|
                . . .  . . .

END WITH  (3:07-END)
D#|--------------------------|
A#|--------------------------|
F#|-12-10-15-17-19-21--------|
C#|--x--x--x--x--x--x-----0~-|
G#|-10--8-13-15-17-19-0-0-0~-|
C#|-------------------0-0-0~-|
                      . .
HARMONY
D#|------------------------|
A#|------------------------|
F#|------------------------|
C#|-8-10-8-10-10-12-----0~-|
G#|-8-10-8-10-10-12-0-0-0~-|
C#|-8-10-8-10-10-12-0-0-0~-|
                    . .


| .  palm mute
| "  tremolo pick
| *  pinch harmonic
| ~  let note ring
| /  slide up
| \  slide down
| h  hammer-on
| p  pull-off
| v  vibrato
| +  natural harmonic
| x  mute note
=============================================================
Suggest correction
What's this?
You can suggest a correction to this tab. Community and Mods will review your correction and vote to approve or reject it.
comments
We did not receive enough feedback on this tab! Please rate:
print report bad tab
1 2 3 4 5
1 comment total.
0 reply
xKnifekillerx 1,684 wrote on April 16 2009, 05:27 pm

great tab man, 5star from me. thanks for posting it.

guest
You may want to rate the tab now too:
select rating
Please do not post tabs as comments. Select "correction" instead!