Oops, an error
Loading. Please wait.

Burning Hearts Tab

version 1
version 1

Acoustic

Whole song

Interactive

9,287 views 9 this week
no commentswrite comment
1 2 3 4 5
x 7
add to favorites
launch autoscroll
font size
0
reset
how to read this tab
guitar tuner
Autoscroll
slow
fast
+/-
esc
set tempo
stop
Help us to improve Ultimate-Guitar.com Take our survey!
×
Author
Difficulty
Tuning
novice
D# G# C# F# A# D#
Burning Hearts (Acoustic)
Silverstein
Rescue (2011)

Tabbed by: Griff5516

Tuning: Eb Ab Db Gb Bb Eb

This is a tab for Silverstein's acoustic version of Burning Hearts off of their newest 
album Rescue. I learned it completely by ear, but it is definitely accurate. Im just 
tabbing out the chords, so just listen to the song for strumming and timing. Hope it helps!

Intro:

Eb |------------------------------------|
Bb |--------------0-----0-----0---------|
Gb |------7---7-----7-----7-----7-------|
Db |----7-------7-----7-----7-----7-----| x2
Ab |--0---------------------------------|
Eb |--------7---------------------------|

    ----------0-----0-----0-----0-------|
    ------------3-----3-----3-----3-----|
    ------2-------2-----2-----2---------|
    ----0-------------------------------| x2
    --0---------------------------------|
    --------3---------------------------|

This entire sequence is played through completely twice, and begins a third time, but 
ends when playing that low E string on the 7th fret.


Verse:

Eb |--------0--------|
Bb |-----0--0--------|
Gb |--0--4--0--0-----|
Db |--5--4--2--5-----|
Ab |--5--2--2--5-----|
Eb |--3--x--0--3-----|

    -----0--------|
    --0--0--------|
    --4--0--0-----|
    --4--2--5-----| x2
    --2--2--5-----|
    --x--0--3-----|


Chorus:

Eb |-----------------|
Bb |--0-----0--------|
Gb |--4--0--7--2-----|
Db |--4--5--7--2-----| x1
Ab |--2--5--5--0-----|
Eb |--x--3--x--x-----|

    --------------|
    --0-----0-----|
    --4--0--7-----|
    --4--5--7-----| x1
    --2--5--5-----|
    --x--3--x-----|

    -----------------|
    --0-----0--------|
    --4--0--7--2-----|
    --4--5--7--2-----| x1
    --2--5--5--0-----|
    --x--3--x--x-----|

    -----0---------|
    --0--0---------|
    --4--0--0~-----|
    --4--2--5~-----| x1
    --2--2--5~-----|
    --x--0--3~-----|



	**Next verse and chorus played through again the same way**


Bridge:

Eb |--------------------------------0-------------------0----------|
Bb |--0----0----0---------0----0----0---------0----0----0----------|
Gb |--4----7----9----0----4----7----0----0----4----7----0----0-----|
Db |--4----7----9----5----4----7----2----5----4----7----2----5-----|
Ab |--2----5----7----5----2----5----2----5----2----5----2----5-----|
Eb |--x----x----x----3----x----x----0----3----x----x----0----3-----|
                                              .    .    .    .

    --------------------------------------------------------------------|
    --------3------------------------------3---------------3------------|
    ----4-----4---4---------0-------------------------------------------|
    ------4-----4-------2-----2---2-----5-----5---5-----5-----5---5-----|
    --2-------------------2-----2---------5-----5---------5-----5-------|
    ------------------0---------------3---------------3-----------------|

    -----------------------------------------|
    --------3--------------------------------|
    ----4-----4---4---------0----------0-----|
    ------4-----4-------2-----2---2----5-----|
    --2-------------------2-----2------5-----|
    ------------------0----------------3-----|
                                       .


Solo:

Eb |------------------------------------------------17-15-14-----|
Bb |--15-14----15-14-------12-15--15-14----15-14----15-12-12-----|
Gb |--------14-------14-12--------------14-------14--------------|
Db |-------------------------------------------------------------|
Ab |-------------------------------------------------------------|
Eb |-------------------------------------------------------------|

    -----------------------------------------------------14----14----14----14--|
    -----15----15----15----15----17----17----17----17--------------------------|
    --14----14----14----14----14----14----14----14----14----14----14----14-----|
    ---------------------------------------------------------------------------|
    ---------------------------------------------------------------------------|
    ---------------------------------------------------------------------------|

    -----14----14----14----14--------------------------------------------------|
    --------------------------15-15-15-15-15-15-15-15-17-17-17-17-17-17-17-17--|
    --14----14----14----14----14-14-14-14-14-14-14-14-14-14-14-14-14-14-14-14--|
    ---------------------------------------------------------------------------|
    ---------------------------------------------------------------------------|
    ---------------------------------------------------------------------------|

    --17-17-17-17-17-17-17-17-17-17-17-17-17-17-17-17-----|
    ---x--x--x--x--x--x--x--x--x--x--x--x--x--x--x--x-----|
    --14-14-14-14-14-14-14-14-14-14-14-14-14-14-14-14-----|
    ------------------------------------------------------|
    ------------------------------------------------------|
    ------------------------------------------------------|


	**Chorus played through one more time**

the song ends on this chord:


Eb |----------|
Bb |--0~~-----|
Gb |--4~~-----|
Db |--4~~-----|
Ab |--2~~-----|
Eb |--x~~-----|


That's it! Hope it helps! Please rate!
Suggest correction
comments
print report bad tab
guest
You may want to rate the tab now too:
select rating
Wanna post a correction for this tab? Suggest correction