Oops, an error
Loading. Please wait.

Burning Hearts Tab

version 1
version 1

Solo

Whole song

Interactive

764 views 1 this week
no commentswrite comment
1 2 3 4 5
please rate
add to favorites
launch autoscroll
font size
0
reset
how to read this tab
guitar tuner
Autoscroll
slow
fast
+/-
esc
set tempo
stop
Help us to improve Ultimate-Guitar.com Take our survey!
×
Author
        tabbed by: C. Young

Tuning: Drop C# (I call it drop Db)
b=bend
r=return
p=pull-off
/=slide up or down (depending if its in front of or behind the fret number)

-Solo-
(I'm naming the strings as if they were in standard tuning; it saves time :D)

...over head...
e|-------------------------|
B|--------7-5---4-5-4------|
G|---4-6--------------6-4--|
D|-2-----------------------|
A|-------------------------|
E|-------------------------|

e|-9----------9----------|
B|-12b14-14r--12b14-14r--|
G|-----------------------|
D|-----------------------|
A|-----------------------|
E|-----------------------|

e|-12p11p9-(x8)--14-12-9-9/--|
B|---------------------------|
G|---------------------------|
D|---------------------------|
A|---------------------------|
E|---------------------------|

e|----------------------|
B|-/9-14p12p9-(x3)--9/--|
G|----------------------|
D|----------------------|
A|----------------------|
E|----------------------|

e|-----------------------|
B|-9-7-5-7-5-4-5-4-------|
G|-----------------4-6/--|
D|-----------------------|
A|-----------------------|
E|-----------------------|

Hope you enjoy learning and playing the solo.
Suggest correction
Give kudos to tab author, rate the tab!
1 2 3 4 5
comments
print report bad tab
guest
You may want to rate the tab now too:
select rating
Please do not post tabs as comments. Select "correction" instead!