Oops, an error
Loading. Please wait.

Call It Karma Tab

version 2
version 2

Acoustic

Whole song

Interactive

10,374 views 1 this week
2 commentsread comments
1 2 3 4 5
accurate
x 7
add to favorites
launch autoscroll
font size
0
reset
how to read this tab
guitar tuner
Autoscroll
slow
fast
+/-
esc
set tempo
stop
Help us to improve Ultimate-Guitar.com Take our survey!
×
Author
Difficulty
novice
Tuning: Standard
  Intro
e|--------------------------------------------------------------------------
B|--------------------------------------------------------------------------
G|-----------------------------------12121212141414141616161616161616-------
D|--141414141412111111111111---------x-x-x-x-x-x-x-x-x-x-x-x-x-x-x-x----2x--
A|--121212121212121212121212--3x-----10101010121212121414141414141414-------
E|--101010101010101010101010------------------------------------------------ 
  Pre-Chorus

         Am               C                Em                G
e|-0000000000000000-0000000000000000-0000000000000000-3333333333333333-----|
B|-1111111111111111-1111111111111111-0000000000000000-3333333333333333-----|
G|-2222222222222222-0000000000000000-0000000000000000-0000000000000000-----|
D|-2222222222222222-2222222222222222-2222222222222222-0000000000000000-----|
A|-0000000000000000-3333333333333333-2222222222222222-2222222222222222-----|
E|-----------------------------------0000000000000000-3333333333333333-----|

  Verse 1

e|--------------------------------------------------------------------------
B|--------------------------------------------------------------------------
G|-----------------------------------12121212141414141616161616161616-------
D|--141414141412111111111111---------x-x-x-x-x-x-x-x-x-x-x-x-x-x-x-x----2x--
A|--121212121212121212121212--3x-----10101010121212121414141414141414-------
E|--101010101010101010101010------------------------------------------------ 
  Pre-Chorus

         Am               C                Em                G
e|-0000000000000000-0000000000000000-0000000000000000-3333333333333333-----|
B|-1111111111111111-1111111111111111-0000000000000000-3333333333333333-----|
G|-2222222222222222-0000000000000000-0000000000000000-0000000000000000-----|
D|-2222222222222222-2222222222222222-2222222222222222-0000000000000000-----|
A|-0000000000000000-3333333333333333-2222222222222222-2222222222222222-----|
E|-----------------------------------0000000000000000-3333333333333333-----|

  Chorus

          C                Em               C            Em      G
e|-0000000000000000-0000000000000000-0000000000000000-0000000033333333-----|
B|-1111111111111111-0000000000000000-1111111111111111-0000000033333333-----|
G|-0000000000000000-0000000000000000-0000000000000000-0000000000000000-----|
D|-2222222222222222-2222222222222222-2222222222222222-2222222200000000-----|
A|-3333333333333333-2222222222222222-3333333333333333-2222222222222222-----|
E|------------------0000000000000000------------------0000000033333333-----|

          C                Em               C            Em      G
e|-0000000000000000-0000000000000000-0000000000000000-0000000033333333-----|
B|-1111111111111111-0000000000000000-1111111111111111-0000000033333333-----|
G|-0000000000000000-0000000000000000-0000000000000000-0000000000000000-----|
D|-2222222222222222-2222222222222222-2222222222222222-2222222200000000-----|
A|-3333333333333333-2222222222222222-3333333333333333-2222222222222222-----|
E|------------------0000000000000000------------------0000000033333333-----|

Solo

e|-------------------------------------------------------------------------|
B|-------------------------------------------------------8-7---8-7---8-7-7-|
G|-----4h5p4-4h5p5-------4h5p4-4h5h7-4-7-5-4-7-5-4---4-------7-----7-------|
D|---5-------------5---5---------------------------5---5-------------------|
A|-3-----------------2-----------------------------------------------------|
E|-------------------------------------------------------------------------|

e|--------------10-8-7-10-8-7-10-8-7-10-8-7-10-8-7-10-8-7-10-8-7-----------|
B|-8-10-8-7---8------------------------------------------------------------|
G|----------7--------------------------------------------------------------|
D|-------------------------------------------------------------------------|
A|-------------------------------------------------------------------------|
E|-------------------------------------------------------------------------|

Pre-Chorus

         Am                C               Em                 G
e|-0000000000000000-0000000000000000-0000000000000000-3333333333333333-----|
B|-1111111111111111-1111111111111111-0000000000000000-3333333333333333-----|
G|-2222222222222222-0000000000000000-0000000000000000-0000000000000000-----|
D|-2222222222222222-2222222222222222-2222222222222222-0000000000000000-----|
A|-0000000000000000-3333333333333333-2222222222222222-2222222222222222-----|
E|-----------------------------------0000000000000000-3333333333333333-----|

Chorus

          C                Em               C            Em      G
e|-0000000000000000-0000000000000000-0000000000000000-0000000033333333-----|
B|-1111111111111111-0000000000000000-1111111111111111-0000000033333333-----|
G|-0000000000000000-0000000000000000-0000000000000000-0000000000000000-----|
D|-2222222222222222-2222222222222222-2222222222222222-2222222200000000-----|
A|-3333333333333333-2222222222222222-3333333333333333-2222222222222222-----|
E|------------------0000000000000000------------------0000000033333333-----|

          C                Em               C            Em      G
e|-0000000000000000-0000000000000000-0000000000000000-0000000033333333-----|
B|-1111111111111111-0000000000000000-1111111111111111-0000000033333333-----|
G|-0000000000000000-0000000000000000-0000000000000000-0000000000000000-----|
D|-2222222222222222-2222222222222222-2222222222222222-2222222200000000-----|
A|-3333333333333333-2222222222222222-3333333333333333-2222222222222222-----|
E|------------------0000000000000000------------------0000000033333333-----|


Bridge

Guitar 1

e|-------------------------------------------------------------------------|
B|-------------------------------------------------------------------------|
G|-------------------------------------------------------------------------|
D|-10-9-7-9-10------10-9-7-5-7-------5-12-10-9-7-9---5-12-10-9-7-9---------|
A|-------------------------------------------------------------------------|
E|-------------------------------------------------------------------------|

Guitar 2

e|-------------------------------------------------------------------------|
B|-------------------------------------------------------------------------|
G|-------------------------------------------------------------------------|
D|-5555555555555555--------------------------------------------------------|
A|------------------5555555555555555-33333333333333333333333333333333------|
E|-------------------------------------------------------------------------|

Guitar 1

e|-------------------------------------------------------------------------|
B|-------------------------------------------------------------------------|
G|-------------------------------------------------------------------------|
D|-10-9-7-9-10------10-9-7-5-7-------5-12-10-9-7-9---1212121212121212------|
A|---------------------------------------------------1010101010101010------|
E|-------------------------------------------------------------------------|

Guitar 2

e|-------------------------------------------------------------------------|
B|-------------------------------------------------------------------------|
G|-------------------------------------------------------------------------|
D|-5555555555555555--------------------------------------------------------|
A|------------------5555555555555555-33333333333333333333333333333333------|
E|-------------------------------------------------------------------------|

Outro

     Em                         D                         C
e|-0-0-0-1010101010101010-2222222222222222---000000000000000000000000000000|
B|-0-0-0------------------3333333333333333---111111111111111111111111111111|
G|-0-0-0------------------2222222222222222---000000000000000000000000000000|
D|-2-2-2------------------0000000000000000---222222222222222222222222222222|
A|-2-2-2-------------------------------------333333333333333333333333333333|
E|-0-0-0-------------------------------------------------------------------|

         Em                D                        C
E|-0000000000000000-2222222222222222-00000000000000000000000000000000------|
B|-0000000000000000-3333333333333333-11111111111111111111111111111111------|
G|-0000000000000000-2222222222222222-00000000000000000000000000000000------|
D|-2222222222222222-0000000000000000-22222222222222222222222222222222------|
A|-2222222222222222------------------33333333333333333333333333333333------|
E|-0000000000000000--------------------------------------------------------|

     Em                          D                          C
e|-0-0-0-1010101010101010-2222222222222222---000000000000000000000000000000|
B|-0-0-0------------------3333333333333333---111111111111111111111111111111|
G|-0-0-0------------------2222222222222222---000000000000000000000000000000|
D|-2-2-2------------------0000000000000000---222222222222222222222222222222|
A|-2-2-2-------------------------------------333333333333333333333333333333|
E|-0-0-0-------------------------------------------------------------------|

          Em              D                          C
e|-0000000000000000-2222222222222222-00000000000000000000000000000000---|
B|-0000000000000000-3333333333333333-11111111111111111111111111111111---|
G|-0000000000000000-2222222222222222-00000000000000000000000000000000---| x2
D|-2222222222222222-0000000000000000-22222222222222222222222222222222---|
A|-2222222222222222------------------33333333333333333333333333333333---|
E|-0000000000000000-----------------------------------------------------|

        Em                D                   C
e|0000000000000000-2222222222222222-0000000000000000-0-0-0-----------------|
B|0000000000000000-3333333333333333-1111111111111111-1-1-1-----------------|
G|0000000000000000-2222222222222222-0000000000000000-0-0-0-----------------|
D|2222222222222222-0000000000000000-2222222222222222-2-2-2-----------------|
A|2222222222222222------------------3333333333333333-3-3-3-----------------|
E|0000000000000000---------------------------------------------------------|

                     Em
e|-1010101010101010---0----------------------------------------------------|
B|--------------------0----------------------------------------------------|
G|--------------------0----------------------------------------------------|
D|--------------------2----------------------------------------------------|
A|--------------------2----------------------------------------------------|
E|--------------------0----------------------------------------------------|


Suggest correction
comments
print report bad tab
2 comments total.
0 reply
ssjEasterBunny 251 wrote on June 26 2008, 04:35 pm

Your tab is the closest I've found. The only difference from tab to tab at this point is the verse. The base note is supposed to be C, not D. And the middle time its an E. Check out the video: http://www.youtube.com/watch?v=0vp4PsvKupA

Also this song is played a half step down.

Eb|----------------------------------|----------------------------------|
Bb|----------------------------------|----------------------------------|
Gb|----------------------------------|----------------------------------|
Db|-12121212--10--11--11111111111111-|-12121212--10--11--11111111111111-|
Ab|-10101010--10--10--10101010101010-|-10101010--10--10--10101010101010-|
Eb|--8-8-8-8---8---8---8-8-8-8-8-8-8-|--0-0-0-0---0---0---0-0-0-0-0-0-0-|

Eb|----------------------------------|----------------------------------|
Bb|----------------------------------|----------------------------------|
Gb|----------------------------------|-12121212141414141616161616161616-|
Db|-12121212--10--11--11111111111111-|--x-x-x-x-x-x-x-x-x-x-x-x-x-x-x-x-|
Ab|-10101010--10--10--10101010101010-|-10101010121212121414141414141414-|
Eb|--8-8-8-8---8---8---8-8-8-8-8-8-8-|--0-0-0-0-0-0-0-0-0-0-0-0-0-0-0-0-|

0 reply
benmossm 10 wrote on February 5 2009, 06:05 pm

On the recording off of 18 Candles its in standard tuning so the root note is C

guest
You may want to rate the tab now too:
select rating
Please do not post tabs as comments. Select "correction" instead!