Oops, an error
Loading. Please wait.

Call It Karma Tab

version 3
version 3

Acoustic

Whole song

Interactive

28,998 views 9 this week
5 commentsread comments
1 2 3 4 5
accurate
x 12
add to favorites
launch autoscroll
font size
0
reset
how to read this tab
guitar tuner
Autoscroll
slow
fast
+/-
esc
set tempo
stop
Help us to improve Ultimate-Guitar.com Take our survey!
×
Author
Difficulty
                             Call It Karam- Silverstein
Tabbed by: swimminpimp113

hey guys,
 this is my first tab so be nice. lol...this is how i fell the song is played. my verse 
much more correct then playing in the 1,2,3 frets....whatch shane play it on youtube. 
you enjoy. make sure to grab another guy to try out those guitar 2 spots

PROPS GO TO HARRIS FOR THE SOLO AND BRIDGE- taken off his tab

Tuning: Standard

Verse 1

GUITAR 1
e|-------------------------------------------------------------------------|
B|-------------------------------------------------------------------------|
G|-------------------------------------------------------------------------|
D|-12-12-12-12---x---9--9--9--9--9--9--9--9--------------------------------|
A|-10-10-10-10---x---10-10-10-10-10-10-10-10------X3-----------------------|
E|-8--8--8--8----8---8--8--8--8--8--8--8--8--------------------------------|
(the 2 x's represent the switch in your middle and ring finger-- start with index finger 
8, middle on 10, and ring finger on 12....its the best way to play it)

e|-------------------------------------------------------------------------|
B|-------------------------------------------------------------------------|
G|-12-12-12-12/-14-14-14-14/-16-16-16-16-16-16-16-16-----------------------|
D|-x--x--x--x---x--x--x--x---x--x--x--x--x--x--x--x------------------------|
A|-10-10-10-10/-12-12-12-12/-14-14-14-14-14-14-14-14-----------------------|
E|-x--x--x--x---x--x--x--x---x--x--x--x--x--x--x--x------------------------|

e|-------------------------------------------------------------------------|
B|-------------------------------------------------------------------------|
G|-------------------------------------------------------------------------|
D|-12-12-12-12---x---9--9--9--9--9--9--9--9--------------------------------|
A|-10-10-10-10---x---10-10-10-10-10-10-10-10------X3-----------------------|
E|-8--8--8--8----8---8--8--8--8--8--8--8--8--------------------------------|

e|--------------------------------------------------------------------------|
B|--------------------------------------------------------------------------|
G|-12-12-12-12/-14-14-14-14/-16-16-16-16-16-16-16-16------------------------|
D|-x--x--x--x---x--x--x--x---x--x--x--x--x--x--x--x-------------------------|
A|-10-10-10-10/-12-12-12-12/-14-14-14-14-14-14-14-14------------------------|
E|-x--x--x--x---x--x--x--x---x--x--x--x--x--x--x--x-------------------------|


GUITAR 2 - this is an addition i like to use.....to me, their sounds like a second 
in the verses,  constantly palm muted.....just C and then E Minor, I'll type the letters when 
begin, but keep strummin throughout...letters wont match up jus follow the quotes and the tab
   "Weather"        "Mess"       "February"       "Hating"
e|-----0-----------0---------0-----------0----------------------------------|
B|-----1-----------0---------1-----------0----------------------------------|
G|-----0-----------0---------0-----------0----------------------------------|
D|-----2-----------2---------2-----------2----------------------------------|
A|-----3-----------2---------3-----------2----------------------------------|
E|-----0-----------0---------0-----------0----------------------------------|


     "And"         "Drama"       "Longer"       "Harder"
e|-----0----------0----------0----------0-------------------------------|
B|-----1----------0----------1----------0-------------------------------|
G|-----0----------0----------0----------0-------------------------------|
D|-----2----------2----------2----------2-------------------------------|
A|-----3----------2----------3----------2-------------------------------|
E|-----0----------0----------0----------0-------------------------------|

CHORUS

BOTH GUITARS
e|-0-0-0-0------0-0-0-0------0-0-0-0------3-3-3-3------------------------|
B|-1-1-1-1------1-1-1-1------0-0-0-0------3-3-3-3------------------------|
G|-2-2-2-2------0-0-0-0------0-0-0-0------0-0-0-0------------------------|
D|-2-2-2-2-X3---2-2-2-2-X3---2-2-2-2-X3---0-0-0-0-X3---------------------|
A|-0-0-0-0------3-3-3-3------2-2-2-2------2-2-2-2------------------------|
E|-0-0-0-0------0-0-0-0------0-0-0-0------3-3-3-3------------------------|
(each is X3 because i hear 12 strums a piece- easier to show it this way)


Verse 2

GUITAR 1
e|--------------------------------------------------------------------------|
B|--------------------------------------------------------------------------|
G|--------------------------------------------------------------------------|
D|-12-12-12-12---x---9--9--9--9--9--9--9--9---------------------------------|
A|-10-10-10-10---x---10-10-10-10-10-10-10-10------X3------------------------|
E|-8--8--8--8----8---8--8--8--8--8--8--8--8---------------------------------|


e|--------------------------------------------------------------------------|
B|--------------------------------------------------------------------------|
G|-12-12-12-12/-14-14-14-14/-16-16-16-16-16-16-16-16------------------------|
D|-x--x--x--x---x--x--x--x---x--x--x--x--x--x--x--x-------------------------|
A|-10-10-10-10/-12-12-12-12/-14-14-14-14-14-14-14-14------------------------|
E|-x--x--x--x---x--x--x--x---x--x--x--x--x--x--x--x-------------------------|

e|--------------------------------------------------------------------------|
B|--------------------------------------------------------------------------|
G|--------------------------------------------------------------------------|
D|-12-12-12-12---x---9--9--9--9--9--9--9--9---------------------------------|
A|-10-10-10-10---x---10-10-10-10-10-10-10-10------X3------------------------|
E|-8--8--8--8----8---8--8--8--8--8--8--8--8---------------------------------|

e|--------------------------------------------------------------------------|
B|--------------------------------------------------------------------------|
G|-12-12-12-12/-14-14-14-14/-16-16-16-16-16-16-16-16------------------------|
D|-x--x--x--x---x--x--x--x---x--x--x--x--x--x--x--x-------------------------|
A|-10-10-10-10/-12-12-12-12/-14-14-14-14-14-14-14-14------------------------|
E|-x--x--x--x---x--x--x--x---x--x--x--x--x--x--x--x-------------------------|

GUITAR 2
e|-------------------------------------------------------------------------|
B|-------------------------------------------------------------------------|
G|-------------------------------------------------------------------------|
D|-----FOLLOW SAMR PALM MUTING PATTERN FROM VERSE 1------------------------|
A|-------------------------------------------------------------------------|
E|-------------------------------------------------------------------------|


Chorus

BOTH GUITARS
e|-0-0-0-0------0-0-0-0------0-0-0-0------3-3-3-3------------------------|
B|-1-1-1-1------1-1-1-1------0-0-0-0------3-3-3-3------------------------|
G|-2-2-2-2------0-0-0-0------0-0-0-0------0-0-0-0------------------------|
D|-2-2-2-2-X3---2-2-2-2-X3---2-2-2-2-X3---0-0-0-0-X3---------------------|
A|-0-0-0-0------3-3-3-3------2-2-2-2------2-2-2-2------------------------|
E|-0-0-0-0------0-0-0-0------0-0-0-0------3-3-3-3------------------------|

POST CHOURUS

BOTH GUITARS
e|-0-0-0-0-------0-0-0-0-------0-0-0-0-------0-0-0-0---3-3-3-3-3-3-3-3--|
B|-1-1-1-1-------0-0-0-0-------1-1-1-1-------0-0-0-0---3-3-3-3-3-3-3-3--|
G|-0-0-0-0-------0-0-0-0-------0-0-0-0-------0-0-0-0---0-0-0-0-0-0-0-0--|
D|-2-2-2-2--X3---2-2-2-2--X3---2-2-2-2--X3---2-2-2-2---0-0-0-0-0-0-0-0--| X2
A|-3-3-3-3-------2-2-2-2-------3-3-3-3-------2-2-2-2---2-2-2-2-2-2-2-2--|
E|-0-0-0-0-------0-0-0-0-------0-0-0-0-------0-0-0-0---3-3-3-3-3-3-3-3--|


SOLO

GUITAR 1
e|-------------------------------------------------------------------------|
B|-------------------------------------------------------8-7---8-7---8-7-7-|
G|-----4h5p4-4h5p5-------4h5p4-4h5h7-4-7-5-4-7-5-4---4-------7-----7-------|
D|---5-------------5---5---------------------------5---5-------------------|
A|-3-----------------2-----------------------------------------------------|
E|-------------------------------------------------------------------------|

e|--------------10-8-7-10-8-7-10-8-7-10-8-7-10-8-7-10-8-7-10-8-7-----------|
B|-8-10-8-7---8------------------------------------------------------------|
G|----------7--------------------------------------------------------------|
D|-------------------------------------------------------------------------|
A|-------------------------------------------------------------------------|
E|-------------------------------------------------------------------------|

GUITAR 2

(THOSE ARE FLICKS INTO PALM MUTES)
e|--0000-0-0-0-0-0-0-0-0-0-0-0-0---0000-0-0-0-0-0-0-0-0-0-0-0-0-----------|
B|--1111-1-1-1-1-1-1-1-1-1-1-1-1---0000-0-0-0-0-0-0-0-0-0-0-0-0-----------|
G|--0000-0-0-0-0-0-0-0-0-0-0-0-0---0000-0-0-0-0-0-0-0-0-0-0-0-0-----------|
D|--2222-2-2-2-2-2-2-2-2-2-2-2-2---2222-2-2-2-2-2-2-2-2-2-2-2-2-----------|
A|--3333-3-3-3-3-3-3-3-3-3-3-3-3---2222-2-2-2-2-2-2-2-2-2-2-2-2-----------|
E|--0000-0-0-0-0-0-0-0-0-0-0-0-0---0000-0-0-0-0-0-0-0-0-0-0-0-0-----------|

e|--2222-2-2-2-2-2-2-2-2-2-2-2-2---0000-0-0-0-0-0-0-0-0-0-0-0-0-------------|
B|--3333-3-3-3-3-3-3-3-3-3-3-3-3---1111-1-1-1-1-1-1-1-1-1-1-1-1-------------|
G|--2222-2-2-2-2-2-2-2-2-2-2-2-2---0000-0-0-0-0-0-0-0-0-0-0-0-0-------------|
D|--0000-0-0-0-0-0-0-0-0-0-0-0-0---2222-2-2-2-2-2-2-2-2-2-2-2-2-------------|
A|--0000-0-0-0-0-0-0-0-0-0-0-0-0---3333-3-3-3-3-3-3-3-3-3-3-3-3-------------|
E|--xxxx-x-x-x-x-x-x-x-x-x-x-x-x---0000-0-0-0-0-0-0-0-0-0-0-0-0-------------|

not palm muted
e|-0-0-0-0-0-0-0-0--0-0-0-0-0-0-0-0--0-0-0-0-0-0-0-0--0-0-0-0-0-0-0-0-|
B|-1-1-1-1-1-1-1-1--0-0-0-0-0-0-0-0--1-1-1-1-1-1-1-1--0-0-0-0-0-0-0-0-|
G|-0-0-0-0-0-0-0-0--0-0-0-0-0-0-0-0--0-0-0-0-0-0-0-0--0-0-0-0-0-0-0-0-|
D|-2-2-2-2-2-2-2-2--2-2-2-2-2-2-2-2--2-2-2-2-2-2-2-2--2-2-2-2-2-2-2-2-|
A|-3-3-3-3-3-3-3-3--2-2-2-2-2-2-2-2--3-3-3-3-3-3-3-3--2-2-2-2-2-2-2-2-|
E|-0-0-0-0-0-0-0-0--0-0-0-0-0-0-0-0--0-0-0-0-0-0-0-0--0-0-0-0-0-0-0-0-|

Chorus
BOTH GUITARS
e|-0-0-0-0------0-0-0-0------0-0-0-0------3-3-3-3------------------------|
B|-1-1-1-1------1-1-1-1------0-0-0-0------3-3-3-3------------------------|
G|-2-2-2-2------0-0-0-0------0-0-0-0------0-0-0-0------------------------|
D|-2-2-2-2-X3---2-2-2-2-X3---2-2-2-2-X3---0-0-0-0-X3---------------------|
A|-0-0-0-0------3-3-3-3------2-2-2-2------2-2-2-2------------------------|
E|-0-0-0-0------0-0-0-0------0-0-0-0------3-3-3-3------------------------|
(each is X3 because i hear 12 strums a piece- easier to show it this way)


POST CHOURUS

BOTH GUITARS
e|-0-0-0-0-------0-0-0-0-------0-0-0-0-------0-0-0-0---3-3-3-3-3-3-3-3--|
B|-1-1-1-1-------0-0-0-0-------1-1-1-1-------0-0-0-0---3-3-3-3-3-3-3-3--|
G|-0-0-0-0-------0-0-0-0-------0-0-0-0-------0-0-0-0---0-0-0-0-0-0-0-0--|
D|-2-2-2-2--X3---2-2-2-2--X3---2-2-2-2--X3---2-2-2-2---0-0-0-0-0-0-0-0--| X2
A|-3-3-3-3-------2-2-2-2-------3-3-3-3-------2-2-2-2---2-2-2-2-2-2-2-2--|
E|-0-0-0-0-------0-0-0-0-------0-0-0-0-------0-0-0-0---3-3-3-3-3-3-3-3--|


BRIDGE

GUITAR 1
e|----------------------------------------------------------------------|
B|----------------------------------------------------------------------|
G|----------------------------------------------------------------------|
D|-10-9-7-9-10------10-9-7-5-7-------5-12-10-9-7-9---5-12-10-9-7-9------|
A|----------------------------------------------------------------------|
E|----------------------------------------------------------------------|

e|----------------------------------------------------------------------|
B|----------------------------------------------------------------------|
G|----------------------------------------------------------------------|
D|-10-9-7-9-10------10-9-7-5-7-------5-12-10-9-7-9---12-12-12-12-12-12--|
A|---------------------------------------------------10-10-10-10-10-10--|
E|----------------------------------------------------------------------|
                                                   pm x  x  x  x  x  x

GUITAR 2
e|-----------------------------------------------------------------------|
B|-----------------------------------------------------------------------|
G|-----------------------------------------------------------------------|
D|-5555555555555555------------------------------------------------------| X2
A|------------------5555555555555555-33333333333333333333333333333333----|
E|-----------------------------------------------------------------------|


OUTRO

BOTH GUITARS
e|-0---0---0------/// 10-10-10-10-10-10--------2-2-2-2------0-0-0-0-----|
B|-0---0---0-----------------------------------3-3-3-3------1-1-1-1-----|
G|-0---0---0-----------------------------------2-2-2-2------0-0-0-0-----|
D|-2---2---2-----------------------------------0-0-0-0-X3---2-2-2-2-x6--|
A|-2---2---2-----------------------------------0-0-0-0------3-3-3-3-----|
E|-0---0---0-----------------------------------x-x-x-x------0-0-0-0-----|

e|-0-0-0-0-------2-2-2-2-------0-0-0-0----------------------------------|
B|-0-0-0-0-------3-3-3-3-------1-1-1-1----------------------------------|
G|-0-0-0-0-------2-2-2-2-------0-0-0-0----------------------------------|
D|-2-2-2-2--X3---0-0-0-0--X3---2-2-2-2--X6------------------------------|
A|-2-2-2-2-------0-0-0-0-------3-3-3-3----------------------------------|
E|-0-0-0-0-------x-x-x-x-------0-0-0-0----------------------------------|

e|-0---0---0------/// 10-10-10-10-10-10--------2-2-2-2------0-0-0-0-----|
B|-0---0---0-----------------------------------3-3-3-3------1-1-1-1-----|
G|-0---0---0-----------------------------------2-2-2-2------0-0-0-0-----|
D|-2---2---2-----------------------------------0-0-0-0-X3---2-2-2-2-x6--|
A|-2---2---2-----------------------------------0-0-0-0------3-3-3-3-----|
E|-0---0---0-----------------------------------x-x-x-x------0-0-0-0-----|

e|-0-0-0-0-------2-2-2-2-------0-0-0-0----------------------------------|
B|-0-0-0-0-------3-3-3-3-------1-1-1-1----------------------------------|
G|-0-0-0-0-------2-2-2-2-------0-0-0-0----------------------------------|
D|-2-2-2-2--X3---0-0-0-0--X3---2-2-2-2--X6------------------------------| X2
A|-2-2-2-2-------0-0-0-0-------3-3-3-3----------------------------------|
E|-0-0-0-0-------x-x-x-x-------0-0-0-0----------------------------------|


e|-0-0-0-0-------2-2-2-2-------0-0-0-0------0---0---0---//-10-10-10-10-10-10|
B|-0-0-0-0-------3-3-3-3-------1-1-1-1------1---1---1-----------------------|
G|-0-0-0-0-------2-2-2-2-------0-0-0-0------0---0---0-----------------------|
D|-2-2-2-2--X3---0-0-0-0--X3---2-2-2-2-X2---2---2---2-----------------------|
A|-2-2-2-2-------0-0-0-0-------3-3-3-3------3---3---3-----------------------|
E|-0-0-0-0-------x-x-x-x-------0-0-0-0------0---0---0-----------------------|

e|----0--------|
B|----0--------|
G|----0--------|
D|----2--------|
A|----2--------|
E|----0--------|


| /  slide up
| \  slide down
| h  hammer-on
| p  pull-off
| ~  vibrato
| +  harmonic
| x  Mute note
===============================================================================
Suggest correction
What's this?
You can suggest a correction to this tab. Community and Mods will review your correction and vote to approve or reject it.
comments
print report bad tab
5 comments total. Showing first comments.
0 reply
tysonboy 116 wrote on March 29 2009, 10:19 pm

Good tab!
I think the third time through the verse the low E should be a 7 instead of 8.

0 reply
jamie9170 16 wrote on June 20 2009, 08:31 am

brill tab exept when its on the intro flick bac and forth on ur 10th wer ur finger was on the 9 u will c wht i mean

0 reply
Osaka 40 wrote on October 7 2009, 11:14 pm

10-10-10-10-10- 10-10-10-10-10-
--------------- 12-12-12-12-12-
--------------- ---------------
--------------- ---------------
--------------- ---------------
--------------- should be---------------

guest
You may want to rate the tab now too:
select rating
Please do not post tabs as comments. Select "correction" instead!