Oops, an error
Loading. Please wait.

Call It Karma Tab

version 2
version 2

Solo

Whole song

Interactive

10,682 views 3 this week
6 commentsread comments
1 2 3 4 5
accurate
x 13
add to favorites
launch autoscroll
font size
0
reset
how to read this tab
guitar tuner
Tab Pro tools
  • play this tab
  • loop segment
  • change instrument
  • show fretboard
  • metronome
Autoscroll
slow
fast
+/-
esc
set tempo
stop
Contributor
Alden Schulte                        (this song is played in    
6/10/06                               drop d, but no tuning 
                                      change is needed for solo)
  Silverstein - Call It Karma (solo)

 I'm sure this is perfect, but you'll be the judge of that ;)


e|----------------------------------------------------|
b|----------------------------------------------------|
g|-------9h10p9-9h10p9-------------9h10p9-9h10/12-----|
D|----10----------------10-----10-----------------10--|
A|--8------------------------0------------------------|
E|----------------------------------------------------|

 |------------------------------|
 |------------------------------|
 |-12-10-9--12-10-9------9------|
 |------------------10-----10---|
 |------------------------------|
 |------------------------------|           

 |------------------------------------------------------|
 |--/13-12------13-12-----13-12--12-13-15--13-12----12--|
 |---------12---------12-------------------------12-----|
 |------------------------------------------------------|
 |------------------------------------------------------|
 |------------------------------------------------------|

 |--/15-13-12--15-13-12---151312-151312-151312-151312-151312~~|
 |------------------------------------------------------------|
 |------------------------------------------------------------|
 |------------------------------------------------------------|
 |------------------------------------------------------------|
 |------------------------------------------------------------|

  both guitars play the same exact solo together

 If You used this, please rate it, and comment if you have a comment.

 ---thank you-
comments
print report bad tab
6 comments total. Showing first comments.
0 reply
krew118es wrote on July 17 2006, 05:19 pm

dude this was perfect! i looked at the other one and it was way off. good job! and thanks for the tab.

+3 reply
SaintJimmy105 wrote on September 5 2006, 09:39 pm

The other guitar does not play the same thing. It's harmonized.

0 reply
Tact wrote on March 9 2008, 03:27 am

when i listen to the song i dont hear some slide but it is almost perfect!

I want to post or [tab]
guest
You may want to rate the tab now too:
select rating
Please do not post tabs as comments. Select "correction" instead!