Oops, an error
Loading. Please wait.

Call It Karma Tab

version 2
version 2

Solo

Whole song

Interactive

2,156 views 3 this week
no commentswrite comment
1 2 3 4 5
worth learning
x 1
add to favorites
launch autoscroll
font size
0
reset
how to read this tab
guitar tuner
Tab Pro tools
  • play this tab
  • loop segment
  • change instrument
  • show fretboard
  • metronome
Autoscroll
slow
fast
+/-
esc
set tempo
stop
Contributor
This is the acoustic version of the song.

Intro/Verse 
[Guitar 1]
e|--------------------------------------------------------------------|
B|--------------------------------------------------------------------|
G|--------------------------12--14--16--------------------------------|
D|-12-12-12-12-12--10-9-----10--12--14--------------------------------|
A|-10-10-10-10-10--10-10----10--12--14--------------------------------|
D|--------------------------10--12--14--------------------------------|

[Guitar 2]
e|------------------|
B|------------------|
G|------------------|
D|-12---2--12---2---|
A|-10---2--10---2---|
D|-10---2--10---2---|

Pre-Chorus [Lose another day here..]
[Guitar 1]
e|-------------------------------------------------------------------------|
B|-------------------------------------------------------------------------|
G|-------------------------------------------------------------------------|
D|--7--10--2--5------------------------------------------------------------|
A|--7--10--2--5------------------------------------------------------------|
D|--7--10--2--5------------------------------------------------------------|

Chorus (you are the fire)
[Guitar 1]
e|----------------------------------------------------------------------|
B|----------------------------------------------------------------------|
G|----------------------------------------------------------------------|
D|-10---2----10---2---5---10---2-----10---2---5-------------------------|
A|-10---2----10---2---5---10---2-----10---2---5-------------------------|
D|-10---2----10---2---5---10---2-----10---2---5-------------------------|

Solo (Guitar 2 plays verse in background)
[Guitar 1] or something like that...
e|------------------------------------------------------------------|
B|------------------------------------------------------------------|
G|------------------------------------------------------------------|
D|-12--9---9--10-9---9--10-9-------x2-9-10-12------12-10-9-12-10-9--|
A|-10--10--10-10-10--10-10-10-10--------------10--------------------|
D|------------------------------------------------------------------|

e|------------------------------------------10-8-7-10-8-7--10-8-7-10-8-7---|
B|-------------------------------------------------------------------------|
G|-12--11-----12--11--11-12-14--12-11----12--------------------------------|
D|-10--10-12--10--10--10-10-12--10-10-12-10--------------------------------|
A|--------10--------------------------10-----------------------------------|
D|-------------------------------------------------------------------------|


Bridge
e|------------------------------------------------------------------------|
B|------------------------------------------------------------------------|
G|------------------------------------------------------------------------|
D|------------------------------------------------------------------------|
A|--------15-----14-----12----------14------15----------------------------|
D|-14--14-----14----14------14-14-------14--------------------------------|

e|------------------------------------------------------------------------|
B|------------------------------------------------------------------------|
G|------------------------------------------------------------------------|
D|------------------------------------------------------------------------|
A|--------15-----14-----12----------14------15----------------------------|
D|-12--12-----12----12------12-12-------12--------------------------------|

e|------------------------------------------------------------------------|
B|------------------------------------------------------------------------|
G|------------------------------------------------------------------------|
D|---------------12----10-------9---------9-------------------------------|
A|----10-----10--------------10--------10---------------------------------|
D|-10----10---------10-----10------10-------------------------------------|

e|---------------------|
B|----12^--------------|
G|----12^--------------|
D|--2----12-----10-----|
A|--2----12-----10-----|
D|--2----12-----10-----|
comments
We did not receive enough feedback on this tab! Please rate:
print report bad tab
1 2 3 4 5
I want to post or [tab]
guest
You may want to rate the tab now too:
select rating
Please do not post tabs as comments. Select "correction" instead!