Oops, an error
Loading. Please wait.

Call It Karma Tab

version 3
version 3

Whole song

Interactive

13,166 views 6 this week
3 commentsread comments
1 2 3 4 5
accurate
x 9
add to favorites
launch autoscroll
font size
0
reset
how to read this tab
guitar tuner
Autoscroll
slow
fast
+/-
esc
set tempo
stop
Help us to improve Ultimate-Guitar.com Take our survey!
×
Contributor
Difficulty
Tuning
novice
D A D G B E
Artist:Silverstein
Song:Call It Karma
Album:Discovering The Waterfront
Tabbed by:senesfail_dude
Tuning:Drop D


NOTE: you have to figure out the srumming and how many times to play the chorus,breakdown & outro parts

THIS IS ABOUT 99% CORRECT!


Intro/Verse - 0:01-0:23
e|---------------------------------------------------------------------------|
B|---------------------------------------------------------------------------|
G|--12-10/9--9---------------------------------------------------------------|
D|--x---x-x--x----16x's------------------------------------------------------|
A|--10--8/7--7---------------------------------------------------------------|
D|---------------------------------------------------------------------------|

Chorus - 0:24-0:35 
e|---------------------------------------------------------------------------|
B|--------8--8--8--8---8--8--8--8--8-8-8-8-----------------------------------|
G|-------12-12-12-12--10-10-10-10--9-9-9-9-----------------------------------|
D|--0--3---------------------------------------------------------------------|
A|--0--3---------------------------------------------------------------------|
D|--0--3---------------------------------------------------------------------|

Verse - 0:36-0:57
e|---------------------------------------------------------------------------|
B|---------------------------------------------------------------------------|
G|--12-10/9--9---------------------------------------------------------------|
D|--x---x-x--x----16x's------------------------------------------------------|
A|--10--8/7--7---------------------------------------------------------------|
D|---------------------------------------------------------------------------|

Chorus - 0:58-1:31
e|---------------------------------------------------------------------------|
B|--------8--8--8--8---8--8--8--8--8-8-8-8-----------------------------------|
G|-------12-12-12-12--10-10-10-10--9-9-9-9-----------------------------------|
D|--0--3---------------------------------------------------------------------|
A|--0--3---------------------------------------------------------------------|
D|--0--3---------------------------------------------------------------------|

(figure out strumming)
e|---------------------------------------------------------------------------|
B|---------------------------------------------------------------------------|
G|--5/7\5/9\7/9--7-5----5/7\5/9\7/9---12-------------------------------------|
D|--x-x-x-x-x-x--x-x----x-x-x-x-x-x---x-----2x's-----------------------------|
A|--3/5\3/7\5/7--5-3----3/5\3/7\5/7---10-------------------------------------|
D|---------------------------------------------------------------------------|

Solo - 1:32-1:53
e|---------------------------------------------------------------------------|
B|-------5h6-5-5h6-5--------5h6-5-5h6/8-5--8-6-5-8-6-5--5--------------------|
G|----5--------------5----5----------------------------5--5------------------|
D|-3--------------------3----------------------------------------------------|
A|---------------------------------------------------------------------------|
D|---------------------------------------------------------------------------|

e|-8-7---8-7----8-7-7h8-10-8-7---7----15-13-12--15-13-12--151312151312151312-|
B|-----6-----6-----------------6---------------------------------------------|
G|---------------------------------------------------------------------------|
D|---------------------------------------------------------------------------|
A|---------------------------------------------------------------------------|
D|---------------------------------------------------------------------------|

Chorus - 1:54-2:27
e|---------------------------------------------------------------------------|
B|--------8--8--8--8---8--8--8--8--8-8-8-8-----------------------------------|
G|-------12-12-12-12--10-10-10-10--9-9-9-9-----------------------------------|
D|--0--3---------------------------------------------------------------------|
A|--0--3---------------------------------------------------------------------|
D|--0--3---------------------------------------------------------------------|


e|---------------------------------------------------------------------------|
B|---------------------------------------------------------------------------|
G|--5/7\5/9\7/9--7-5----5/7\5/9\7/9---12-------------------------------------|
D|--x-x-x-x-x-x--x-x----x-x-x-x-x-x---x-----2x's-----------------------------|
A|--3/5\3/7\5/7--5-3----3/5\3/7\5/7---10-------------------------------------|
D|---------------------------------------------------------------------------|

2:28-2:39 is bass nd drums and 2:40-2:49 i dont know

Outro- 2:50-        | Figure the strumming paterns!
e|----------/888888-|--------------------------------------------------------|
B|------------------|--------------------------------------------------------|
G|------------------|--------------------------------------------------------|
D|-7-7-7------------|-55555-33333----77777---555555---33333------------------|
A|-7-7-7------------|-55555-33333----77777---555555---33333------------------|
D|-7-7-7------------|-55555-33333----77777---555555---33333------------------|

e|--------/888888------------------------------------------------------------|
B|---------------------------------------------------------------------------|
G|---------------------------------------------------------------------------|
D|-7-7-7--------------55555-33333----77777---55555---33333-------------------|
A|-7-7-7--------------55555-33333----77777---55555---33333-------------------|
D|-7-7-7--------------55555-33333----77777---55555---33333-------------------|

e|------------------------------------------------------------/888888--------|
B|---------------------------------------------------------------------------|
G|---------------------------------------------------------------------------|
D|-777777-5555555-3333333-7777777-5555555-3333333-------3-3-3------------7---|
A|-777777-5555555-3333333-7777777-5555555-3333333-------3-3-3------------7---|
D|-777777-5555555-3333333-7777777-5555555-3333333-------3-3-3------------7---|


| /  slide up
| \  slide down
| h  hammer-on
| p  pull-off
| ~  vibrato
| +  harmonic
| x  Mute note
comments
print report bad tab
3 comments total.
0 reply
Guitar4life1210 102 wrote on July 9 2007, 08:57 pm

WAY better than the others, though you're missing guitar two. 5 Stars though.

0 reply
bebe17 151 wrote on January 27 2008, 09:54 am

yea you dont have to be in drop d u just play open chords throughout the song

0 reply
SensesFail_dude 441 wrote on August 5 2009, 03:40 pm

silverstein plays in drop d, so thats how i like to play in, sometimes they use standard, and their newer shit they tune in half step down

I want to post or [tab]
guest
You may want to rate the tab now too:
select rating
Please do not post tabs as comments. Select "correction" instead!