Oops, an error
Loading. Please wait.

Darling Harbour Tab

version 1
version 1

Whole song

Interactive

5,244 views 6 this week
no commentswrite comment
1 2 3 4 5
excellent!
x 5
add to favorites
launch autoscroll
font size
0
reset
how to read this tab
guitar tuner
Autoscroll
slow
fast
+/-
esc
set tempo
stop
Help us to improve Ultimate-Guitar.com Take our survey!
×
Author
Difficulty
Tuning
novice
D# G# C# F# A# D#
Darling Harbour - Silverstein - Transistions

THIS IS A FAIRLY NEW SONG, AND I COULDNT FIND ANY TABS,
SO I MADE THIS, ITS PRETTY GOOD BUT THERE MAY BE A FEW
PROBLEMS THAT CAN BE SOLVED BY LISTENING
TO THE SONG, GOOD LUCK ;)

Tunning - Half step down

Legend
~~~     = Hold / Let Ring
PM..... = Palm Mute


INTRO RIFF / VERSE 0:00 - 0:27

E|---------------------------------------------------------------------------|
B|---------------------------------------------------------------------------|
G|---------------------------------------------------------------------------|
D|--77777777-77777777-44444444-44444444--------------------44444444-44444444-|
A|--55555555-55555555-22222222-22222222-55555555-555555555-22222222-22222222-|
E|--------------------------------------33333333-333333333-------------------|
  Pm........................................................................

E|---------------------------------------------------------------------------|
B|---------------------------------------------------------------------------|
G|---------------------------------------------------------------------------|
D|--77777777-77777777-44444444-44444444--------------------44444444-4~~~-----|
A|--55555555-55555555-22222222-22222222-55555555-555555555-22222222-2~~~-----|
E|--------------------------------------33333333-333333333-------------------|
  Pm...............................................................

CHORUS 0:28 - 0:41

E|---------------------------------------------------------------------------|
B|---------------------------------------------------------------------------|
G|--77-7777-99-9999-44-44-44-44-------77-7777-99-9999-44-44-44-44------------|
D|--77-7777-99-9999-44-44-44-44-xx777-77-7777-99-9999-44-44-44-44-xx777------|
A|--55-5555-77-7777-22-22-22-22-xx777-55-5555-77-7777-22-22-22-22-xx777------|
E|------------------------------xx555-----------------------------xx555------|

VERSE 2 0:42 - 1:09

E|---------------------------------------------------------------------------|
B|---------------------------------------------------------------------------|
G|---------------------------------------------------------------------------|
D|--77-7-777-7-7-44-4-444-4-4--------------44-4-444-4-4----------------------|
A|--55-5-555-5-5-22-2-222-2-2-55-5-555-5-5-22-2-222-2-2----------------------|
E|----------------------------33-3-333-3-3-----------------------------------|
  Pm..   ...   . ..   ...   . ..   ...   . ..   ...   .

E|---------------------------------------------------------------------------|
B|---------------------------------------------------------------------------|
G|---------------------------------------------------------------------------|
D|--77-7-777-7-7-44-4-444-4-4--------------44-4-444-4-4----------------------|
A|--55-5-555-5-5-22-2-222-2-2-55-5-555-5-5-22-2-222-2-2----------------------|
E|----------------------------33-3-333-3-3-----------------------------------|
    ..   ...   . ..   ...   . ..   ...   . ..   ...   .

E|---------------------------------------------------------------------------|
B|---------------------------------------------------------------------------|
G|---------------------------------------------------------------------------|
D|--77-7-777-7-7-44-4-444-4-4--------------44-4-444-4-4----------------------|
A|--55-5-555-5-5-22-2-222-2-2-55-5-555-5-5-22-2-222-2-2----------------------|
E|----------------------------33-3-333-3-3-----------------------------------|
    ..   ...   . ..   ...   . ..   ...   . ..   ...   .

E|---------------------------------------------------------------------------|
B|---------------------------------------------------------------------------|
G|---------------------------------------------------------------------------|
D|--77-7-777-7-7-44-4-444-4-4--------------44444444--------------------------|
A|--55-5-555-5-5-22-2-222-2-2-55-5-555-5-5-22222222--------------------------|
E|----------------------------33-3-333-3-3-----------------------------------|
    ..   ...   . ..   ...   . ..   ...   . ....

CHORUS 2 1:10 - 1:23

E|---------------------------------------------------------------------------|
B|---------------------------------------------------------------------------|
G|--77-7777-99-9999-44-44-44-44-------77-7777-99-9999-44-44-44-44------------|
D|--77-7777-99-9999-44-44-44-44-xx777-77-7777-99-9999-44-44-44-44-xx777------|
A|--55-5555-77-7777-22-22-22-22-xx777-55-5555-77-7777-22-22-22-22-xx777------|
E|------------------------------xx555-----------------------------xx555------|

BRIDGE 1:24 - 1:50

E|---------------------------------------------------------------------------|
B|---------------------------------------------------------------------------|
G|---------------------------------------------------------------------------|
D|--------------------44444444-444444--------------------44444444-444444-----|
A|--55555555-55555577-22222222-22222277-5555555-55555577-22222222-22222277---|
E|--33333333-33333355----------------55-3333333-33333355----------------55---|

E|---------------------------------------------------------------------------|
B|---------------------------------------------------------------------------|
G|---------------------------------------------------------------------------|
D|--------------------44444444-444444--------------------44444444-44-4444----|
A|--55555555-55555577-22222222-22222277-5555555-55555577-22222222-22-2222----|
E|--33333333-33333355----------------55-3333333-33333355---------------------|

VERSE 3 1:51 - 2:18

E|---------------------------------------------------------------------------|
B|---------------------------------------------------------------------------|
G|---------------------------------------------------------------------------|
D|--77777777-77777777-44444444-44444444--------------------44444444-44444444-|
A|--55555555-55555555-22222222-22222222-55555555-555555555-22222222-22222222-|
E|--------------------------------------33333333-333333333-------------------|
  Pm........................................................................

E|---------------------------------------------------------------------------|
B|---------------------------------------------------------------------------|
G|---------------------------------------------------------------------------|
D|--77777777-77777777-44444444-44444444--------------------44444444-4~~~-----|
A|--55555555-55555555-22222222-22222222-55555555-555555555-22222222-2~~~-----|
E|--------------------------------------33333333-333333333-------------------|
  Pm...............................................................

(PICKSLIDE BEFORE CHORUS)

CHORUS 3 2:20 - 2:52

E|---------------------------------------------------------------------------|
B|---------------------------------------------------------------------------|
G|--77-7777-99-9999-44-44-44-44-------77-7777-99-9999-44-44-44-44------------|
D|--77-7777-99-9999-44-44-44-44-xx777-77-7777-99-9999-44-44-44-44-xx777------|
A|--55-5555-77-7777-22-22-22-22-xx777-55-5555-77-7777-22-22-22-22-xx777------|
E|------------------------------xx555-----------------------------xx555------|

E|---------------------------------------------------------------------------|
B|---------------------------------------------------------------------------|
G|-77777777-99999999-44444444-444444-------77777777-99999999-44-44-44-44-444-|
D|-77777777-99999999-44444444-444444-xx----77777777-99999999-44-44-44-44-444-|
A|-55555555-77777777-22222222-222222-xx777-55555555-77777777-22-22-22-22-222-|
E|-----------------------------------xx555-----------------------------------|

TABBED BY XWARGINX
Suggest correction
comments
print report bad tab
guest
You may want to rate the tab now too:
select rating
Wanna post a correction for this tab? Suggest correction