Oops, an error
Loading. Please wait.

Darling Harbour Tab

version 2
version 2

Whole song

Interactive

610 views 1 this week
no commentswrite comment
1 2 3 4 5
1 last vote to show rating
add to favorites
launch autoscroll
font size
0
reset
how to read this tab
guitar tuner
Autoscroll
slow
fast
+/-
esc
set tempo
stop
Help us to improve Ultimate-Guitar.com Take our survey!
×
Author
Difficulty
Tuning
intermediate
D# G# C# F# A# D#
Tabbed by: Joshua Garcia (joshuag523@aol.com)

Tabs for the song: Darling Harbour by Silverstein
Please rate and let me know if you have any corrections. Thank you.


**NOTE - This was taken from my full album tab, which can be found here: 
http://tabs.ultimate-guitar.com/s/silverstein/rescue_album_tab.htm **


Tuning: Half-Step Down (D# G# C# F# A# D#)



Intro
Guitar 1:
D#||--------------------------------------------------------------------------|
A#||--------------------------------------------------------------------------|
F#||--------------------------------------------------------------------------|
C#||--7777777777777777-0000000000000000-------------44------------------------|
G#||--5555555555555555-2222222222222222-22222222222-55-22-4-5555555555555555--|
D#||------------------------------------33333333333----33-5-7777777777777777--|
      ................ ................ ........... .. .. . ................


Guitar 1/2:
D#||---------------------------------------------------------------------|
A#||---------------------------------------------------------------------|
F#||---------------------------------------------------------------------|
C#||--7777777777777777-0000000000000000-------------44-------------------|
G#||--5555555555555555-2222222222222222-22222222222-55-22-4-55555555-5~--|
D#||------------------------------------33333333333----33-5-77777777-7~--|
      ................ ................ ........... .. .. . ........



Chorus
Guitar 1:
D#||--------------------------------------------------------------------|
A#||--------------------------------------------------------------------|
F#||--7-7---7-7-7-7---9-9---9-9-9-9-------------------------------------|
C#||--7-7---7-7-7-7---9-9---9-9-9-9---9-9---9-9---9-9---9-9-----7-7-7---| x2
G#||--5-5---5-5-5-5---7-7---7-7-7-7---9-9---9-9---9-9---9-9-----7-7-7---|
D#||----------------------------------7-7---7-7---7-7---7-7--55-5-5-5---|
                                                             ..

Guitar 2:
D#||--------------------------------------------------------------------|
A#||--5-5---5-5-5-5---7-7---7-7-7-7-------------------------------------|
F#||--7-7---7-7-7-7---7-7---7-7-7-7---7-7---7-7---7-7---7-7-----6-6-6---|
C#||----------------------------------9-9---9-9---9-9---9-9--77-7-7-7---| x2
G#||--------------------------------------------------------------------|
D#||--------------------------------------------------------------------|
                                                             ..



Verse
Guitar 1/2:
D#||----------------------------------------------------------------------|
A#||----------------------------------------------------------------------|
F#||----------------------------------------------------------------------|
C#||--7-7-7-7-7-7-7-7--0-0-0-0-0-0-0-0-------------------0-0-0-0-0-0-0-0--|
G#||--5-5-5-5-5-5-5-5--2-2-2-2-2-2-2-2--2-2-2-2-2-2-2-2--2-2-2-2-2-2-2-2--|
D#||------------------------------------3-3-3-3-3-3-3-3-------------------|
      . .   . . .      . .   . . .      . .   . . .      . .   . . .


D#||----------------------------------------------------------------------|
A#||----------------------------------------------------------------------|
F#||----------------------------------------------------------------------|
C#||--7-7-7-7-7-7-7-7--0-0-0-0-0-0-0-0-------------------0-0-0-0-0-0-0-0--| x2
G#||--5-5-5-5-5-5-5-5--2-2-2-2-2-2-2-2--2-2-2-2-2-2-2-2--2-2-2-2-2-2-2-2--|
D#||------------------------------------3-3-3-3-3-3-3-3-------------------|
      . .   . . .      . .   . . .      . .   . . .      . .   . .




Chorus
Guitar 1:
D#||--------------------------------------------------------------------|
A#||--------------------------------------------------------------------|
F#||--7-7---7-7-7-7---9-9---9-9-9-9-------------------------------------|
C#||--7-7---7-7-7-7---9-9---9-9-9-9---9-9---9-9---9-9---9-9-----7-7-7---| x2
G#||--5-5---5-5-5-5---7-7---7-7-7-7---9-9---9-9---9-9---9-9-----7-7-7---|
D#||----------------------------------7-7---7-7---7-7---7-7--55-5-5-5---|
                                                             ..

Guitar 2:
D#||--------------------------------------------------------------------|
A#||--5-5---5-5-5-5---7-7---7-7-7-7-------------------------------------|
F#||--7-7---7-7-7-7---7-7---7-7-7-7---7-7---7-7---7-7---7-7-----6-6-6---|
C#||----------------------------------9-9---9-9---9-9---9-9--77-7-7-7---| x2
G#||--------------------------------------------------------------------|
D#||--------------------------------------------------------------------|
                                                             ..


Bridge
Guitar 1/2:
D#||----------------------------------------|----------------------------------------|
A#||----------------------------------------|----------------------------------------|
F#||---------------2222-444444444444-2222---|---------------2222-44444444-55555555---|
C#||--555555555555-2222-444444444444-2222---|--555555555555-2222-44444444-55555555---|
G#||--555555555555-0000-222222222222-0000---|--555555555555-0000-22222222-33333333---|
D#||--333333333333--------------------------|--333333333333--------------------------|


D#||----------------------------------------|----------------------------------------------|
A#||----------------------------------------|----------------------------------------------|
F#||---------------2222-444444444444-2222---|---------------2222-44444444---2-2---2-2-2-2--|
C#||--555555555555-2222-444444444444-2222---|--555555555555-2222-44444444---2-2---2-2-2-2--|
G#||--555555555555-0000-222222222222-0000---|--555555555555-0000-22222222---0-0---0-0-0-0--|
D#||--333333333333--------------------------|--333333333333--------------------------------|



Interlude
Guitar 1:
D#||--------------------------------------------------------------------------|
A#||--------------------------------------------------------------------------|
F#||--------------------------------------------------------------------------|
C#||--7777777777777777-0000000000000000-------------44------------------------| 
G#||--5555555555555555-2222222222222222-22222222222-55-22-4-5555555555555555--|
D#||------------------------------------33333333333----33-5-7777777777777777--|
      ................ ................ ........... .. .. . ................


D#||---------------------------------------------------------------------------|
A#||---------------------------------------------------------------------------|
F#||---------------------------------------------------------------------------|
C#||--7777777777777777-0000000000000000-------------44-------------------------| 
G#||--5555555555555555-2222222222222222-22222222222-55-22-4-555555555555555-5--|
D#||------------------------------------33333333333----33-5-777777777777777-7--|
      ................ ................ ........... .. .. . ............


Guitar 2:
D#||-------------------------------------------------------------------|
A#||--3---3---3---3---3---3---3---3---0---0---0---0---0---0---0---0----|
F#||----2---2---2---2---2---2---2---2---2---2---2---2---2---2---2---2--|
C#||-------------------------------------------------------------------|
G#||-------------------------------------------------------------------|
D#||-------------------------------------------------------------------|
      . . . . . . . . . . . . . . . . . . . . . . . . . . . . . . . .


D#||-------------------------------------------------------|
A#||----------------------------------3---3---3---3----3---|
F#||----2---2---2---2---2---2---2---2---2---2---2---2--2---|
C#||--0---0---0---0---0---0---0---0------------------------|
G#||-------------------------------------------------------|
D#||-------------------------------------------------------|
      . . . . . . . . . . . . . . . . . . . . .



Chorus
Guitar 1:
D#||--------------------------------------------------------------------|
A#||--------------------------------------------------------------------|
F#||--7-7---7-7-7-7---9-9---9-9-9-9-------------------------------------|
C#||--7-7---7-7-7-7---9-9---9-9-9-9---9-9---9-9---9-9---9-9-----7-7-7---| x2
G#||--5-5---5-5-5-5---7-7---7-7-7-7---9-9---9-9---9-9---9-9-----7-7-7---|
D#||----------------------------------7-7---7-7---7-7---7-7--55-5-5-5---|
                                                             ..

Guitar 2:
D#||--------------------------------------------------------------------|
A#||--5-5---5-5-5-5---7-7---7-7-7-7-------------------------------------|
F#||--7-7---7-7-7-7---7-7---7-7-7-7---7-7---7-7---7-7---7-7-----6-6-6---|
C#||----------------------------------9-9---9-9---9-9---9-9--77-7-7-7---| x2
G#||--------------------------------------------------------------------|
D#||--------------------------------------------------------------------|
                                                             ..



Outro
Guitar 1:
D#||---------------------------------------|
A#||---------------------------------------|
F#||--77777777-99999999--------------------|
C#||--77777777-99999999-999999999999-7777--|
G#||--55555555-77777777-999999999999-7777--|
D#||--------------------777777777777-5555--|


D#||-------------------------------------------------------|
A#||-------------------------------------------------------|
F#||--77777777-99999999------------------------------------|
C#||--77777777-99999999---9-9---9-9---9-9---9-9-----7-7-7--|
G#||--55555555-77777777---9-9---9-9---9-9---9-9-----7-7-7--|
D#||----------------------7-7---7-7---7-7---7-7--55-5-5-5--|
                                                 ..

Guitar 2:
D#||---------------------------------------|
A#||--55555555-77777777--------------------|
F#||--77777777-77777777-777777777777-6666--|
C#||--------------------999999999999-7777--|
G#||---------------------------------------|
D#||---------------------------------------|


D#||-------------------------------------------------------|
A#||--55555555-77777777------------------------------------|
F#||--77777777-77777777---7-7---7-7---7-7---7-7-----7-7-7--|
C#||----------------------9-9---9-9---9-9---9-9--77-7-7-7--|
G#||-------------------------------------------------------|
D#||-------------------------------------------------------|
                                                 ..




Tablature Legend
----------------
 h   hammer-on
 p   pull-off
 b   bend
 pb  pre-bend
 r   release bend
 ~   hold / vibrato
 .   palm mute
 /   slide up
 \   slide down
 *   pinch harmonic
 '   natural harmonic
 x   mute note
 T   tap
Suggest correction
Give kudos to tab author, rate the tab!
1 2 3 4 5
comments
print report bad tab
guest
You may want to rate the tab now too:
select rating
Wanna post a correction for this tab? Suggest correction