Oops, an error
Loading. Please wait.

Dawn Of The Fall Tab

1,265 views 1 this week
2 commentsread comments
1 2 3 4 5
excellent!
x 3
add to favorites
launch autoscroll
font size
0
reset
how to read this tab
guitar tuner
Autoscroll
slow
fast
+/-
esc
set tempo
stop
Help us to improve Ultimate-Guitar.com Take our survey!
×
Author
+++++++++++++++++++++++++++++++++
| SilVerstein- Dawn Of The Fall |
+++++++++++++++++++++++++++++++++

Tuning: EADGBe

Intro: Guitar 1 
1.
e|----------------------------------------------------|
B|--8-8-8-7-7-7-5-5-5-7-7-7-8-8-8-7-7-7---------------|
G|--------------------------------------555555555x----|
D|--------------------------------------555555555x----|
A|--------------------------------------333333333x----|
E|----------------------------------------------------|

Intro: Guitar 2
2.
e|----------------------------------------------------|
B|----------------------------------------------------|
G|--7~~---------------4~~---------------555555555x----|
D|--7~~---------------4~~---------------555555555x----|
A|--5~~---------------2~~---------------333333333x----|
E|----------------------------------------------------|

Verse: Guitar 1
"It was yesterday you told me you loved me..."
3.
e|--------------------------------------------------------------------------|
B|-3-3-3-3-5-55-55-55-5-5-5-5-8-88-87-788x--3-3-3-2-22-22-22----------------|
G|--------------------------------------------------------------------------|
D|-----------------------------------------------------------22-4-5-555555--|
A|-----------------------------------------------------------22-4-5-555555--|--x2
E|-----------------------------------------------------------00-2-3-333333--|

Verse: Guitar 2
"It was yesterday you told me you loved me..."
4.
e|-------------------------------------------------------------------|
B|------------------5555555-8888888----------------------------------|
G|--7777777-6666666-4444444-7777777----77-7-6-666666-----------------|
D|--7777777-6666666-2222222-5555555----77-7-6-666666--22-4-5-555555--|
A|--5555555-4444444--------------------55-5-4-444444--22-4-5-555555--|--x2
E|----------------------------------------------------00-2-3-333333--|

Chorus: Both Guitars
"When I get back home..."
5.
e|-------------------------------------------------------------|
B|-------------------------------------------------------------|
G|--7777x--6666x----------------7777x--6666x-------------------|
D|--7777x--6666x--2222x--5555x--7777x--6666x--2222x--55x--55x--|
A|--5555x--4444x--2222x--5555x--5555x--4444x--2222x--55x--55x--|
E|----------------0000x--3333x----------------0000x--33x--33x--|

Guitar 1 (The secong guitar keeps playing number 5)
"And all the things I've given you..."
6.
e|-------------------------------------------------------------------------------|
B|-------------------------------------------------------------------------------|
G|--7777x-----6666x-------------------------7777x-----6666x----------------------|
D|--7777x-4h5-6666x-4h5-2222x-4h5-5555x-5p4-7777x-4h5-6666x-4h5-2222x-4h5~-44-0--|
A|--5555x-----4444x-----2222x-----5555x-----5555x-----4444x-----2222x------------|
E|----------------------0000x-----3333x-------------------------0000x------------| 

Verse: Guitar 1
"And today I found out..."
7.
e|--------------------------------------------------------------------------|
B|-3-3-3-3-5-55-55-55-5-5-5-5-8-88-87-788x--3-3-3-2-22-22-22----------------|
G|--------------------------------------------------------------------------|
D|-----------------------------------------------------------22-4-5-555555--|
A|-----------------------------------------------------------22-4-5-555555--|--x2
E|-----------------------------------------------------------00-2-3-333333--|

Verse: Guitar 2
"And today I found out..."
8.
e|-------------------------------------------------------------------|
B|------------------5555555-8888888----------------------------------|
G|--7777777-6666666-4444444-7777777----77-7-6-666666-----------------|
D|--7777777-6666666-2222222-5555555----77-7-6-666666--22-4-5-555555--|
A|--5555555-4444444--------------------55-5-4-444444--22-4-5-555555--|--x2
E|----------------------------------------------------00-2-3-333333--|

Chorus: Both Guitars
"When I get back home..."
9.
e|-------------------------------------------------------------|
B|-------------------------------------------------------------|
G|--7777x--6666x----------------7777x--6666x-------------------|
D|--7777x--6666x--2222x--5555x--7777x--6666x--2222x--55x--55x--|
A|--5555x--4444x--2222x--5555x--5555x--4444x--2222x--55x--55x--|
E|----------------0000x--3333x----------------0000x--33x--33x--|

Guitar 1 (The secong guitar keeps playing number 9)
"And all the things I've given you..."
10.
e|-------------------------------------------------------------------------------|
B|-------------------------------------------------------------------------------|
G|--7777x-----6666x-------------------------7777x-----6666x----------------------|
D|--7777x-4h5-6666x-4h5-2222x-4h5-5555x-5p4-7777x-4h5-6666x-4h5-2222x-4h5~-44-0--|
A|--5555x-----4444x-----2222x-----5555x-----5555x-----4444x-----2222x------------|
E|----------------------0000x-----3333x-------------------------0000x------------| 

Verse: Guitar 1
"And Ill start to think..."
11.
e|--------------------------------------------------------------------------|
B|-3-3-3-3-5-55-55-55-5-5-5-5-8-88-87-788x--3-3-3-2-22-22-22----------------|
G|--------------------------------------------------------------------------|
D|-----------------------------------------------------------22-4-5-555555--|
A|-----------------------------------------------------------22-4-5-555555--|--x2
E|-----------------------------------------------------------00-2-3-333333--|

Verse: Guitar 2
"And Ill start to think..."
12.
e|-------------------------------------------------------------------|
B|------------------5555555-8888888----------------------------------|
G|--7777777-6666666-4444444-7777777----77-7-6-666666-----------------|
D|--7777777-6666666-2222222-5555555----77-7-6-666666--22-4-5-555555--|
A|--5555555-4444444--------------------55-5-4-444444--22-4-5-555555--|--x2
E|----------------------------------------------------00-2-3-333333--|

1:50 
Both Guitars
13.
e|----------|
B|----------|
G|--7~~-----|
D|--7~~-----|
A|--5~~-----|
E|----------|

Guitar 1
"I'll believe..."
14.
e|--------------------------------------------------------------|
B|--------7~-------------5~-------------2~-------------3~-------|
G|------7----7---------6----6---------4----4---------4----4-----|
D|----7--------7~----7--------7~----4--------4~----5--------5~--|
A|--5--------------5--------------2-----------------------------|
E|-----------------------------------------------3--------------|

"You were there...."
15.
e|-----------------------------------------------------|
B|--------7~-------------5~-------------2~-------------|
G|------7----7---------6----6---------4----4-----------|
D|----7--------7~----7--------7~----4--------4~-5~~----|
A|--5--------------5--------------2-------------5~~----|
E|----------------------------------------------3~~----|

Guitar 1
"SEE MY PAIN!!! ILL BELIEVE..."
16.
e|----------------------------------------------------------------------------|
B|--33333333-33333333-00000000-00000000-------------------88888888-8888-7777--|
G|--------------------------------------00000000-00000000---------------------|
D|----------------------------------------------------------------------------|
A|----------------------------------------------------------------------------|
E|----------------------------------------------------------------------------|

Guitar 2
"SEE MY PAIN!!! ILL BELIEVE..."
17.
e|-------------------------------------------------|
B|-------------------------------------------------|
G|--77777777-44444444------------------------------|
D|--77777777-44444444-55555555-55555555------------|
A|--55555555-22222222-55555555-55555555------------|
E|--------------------33333333-33333333------------|

Guitar 1  3:05
18.
e|------5---3---232------5---3---232-333333333333-333333333333--|
B|--3-33--33--33-----3-33--33--33-------------------------------|
G|--------------------------------------------------------------|
D|--------------------------------------------------------------|
A|--------------------------------------------------------------|
E|--------------------------------------------------------------|

Guitar 2
19.
e|--------------------------------------------------------------|
B|--------------------------------------------------------------|
G|--------------------------------------------------------------|
D|-----------------------------------555555555555-555555555555--|
A|--5-55--55--55-----5-55--55--55----555555555555-555555555555--|
E|-----------------------------------333333333333-333333333333--|

The first guitar keeps playing that
And the second one plays:

Guitar 2
20.
e|--------------------------------------------------------------|
B|--------------------------------------------------------------|
G|--7-77--77--77-----7-77--77--77-------------------------------|
D|--7-77--77--77-----7-77--77--77----555555555555-555555555555--|
A|--5-55--55--55-----5-55--55--55----555555555555-555555555555--|
E|-----------------------------------333333333333-333333333333--|

Guitar 1
"It wont break this time..."
21.
e|-------------------------------------------------------------|
B|--888888-777777-555555-333333-888888-777777-555555-333333----|
G|-------------------------------------------------------------|
D|-------------------------------------------------------------|
A|-------------------------------------------------------------|
E|-------------------------------------------------------------|

"I wont be so shy..."
22.
e|--------------------------------------------------------------|
B|--888888-777777-555555-333333-888888-777777-555555-333333-3~--|
G|--------------------------------------------------------------|
D|--------------------------------------------------------------|
A|--------------------------------------------------------------|
E|--------------------------------------------------------------|

23.
e|------------------------------|
B|------------------------------|
G|--7-77-7-77-7\2---------------|
D|--7-77-7-77-7\2---------------|
A|--5-55-5-55-5\0---------------|
E|------------------------------|

Lyrics:

It was yesterday you told me you loved me,
But today I learned you found someone else 
and everything was fake. 
When I get back home I know that you'll be gone. 
And all the things I've given you are left behind; I'll put them in a box. 
And today I found out you moved in with him. 
A one-bedroom apartment down the road 
from the place we first met. 
When I get back home I know that you'll be gone. 
With all the memories of me you had 
locked here in this box.
And I'll start to think of everything we had. 
I was always there for you 
I asked for nothing in return I swear. 
I'll believe, 
you'll make you see.
You were there with someone else. 
See my pain, I'll believe 
you were there with him. 
I don't want to see your face again, not like this. 
I don't have to see you in this place.
I don't want to see your face again. (face again)
I will not be ashamed not now. 
This time I won't be ashamed of it. 
This time I won't make it change myself. 
This time I will make myself believe. 
My heart,
it won't break this time, 
won't be left behind, 
I won't be so shy; I won't let you win this time.

+++++++++++++++++++++++++++++++++
| RaiLeff                       |
| Underground__Dora@Hotmail.Com |
+++++++++++++++++++++++++++++++++
Suggest correction
Give kudos to tab author, rate the tab!
1 2 3 4 5
comments
print report bad tab
2 comments total.
0 reply
carrotcake 1,997 wrote on June 23 2007, 04:12 pm

this is pretty good for a bass player (I guess you play bass more than guitar)

0 reply
RaiLeff 12,882 wrote on June 24 2007, 01:29 pm

As a matter of fact I do :D
Thanx

guest
You may want to rate the tab now too:
select rating
Wanna post a correction for this tab? Suggest correction