Oops, an error
Loading. Please wait.

Dead Reflection album tab

313 views 15 this week
3 commentsread comments
1 2 3 4 5
x 3
add to favorites
×
Save as Personal and add changes to this tab that will be seen only by you. Learn more ›
×
You can save this tab as Personal to edit and correct it or add notes. All changes will be seen only by you. Learn more »
launch autoscroll
font size
0
reset
how to read this tab
guitar tuner
edit
Autoscroll
slow
fast
+/-
esc
set tempo
stop
Tabbed by: Joshua Garcia (joshuag523@aol.com)

Tabs for the album: Dead Reflection by Silverstein
Please rate and let me know if you have any corrections. Thank you.


*To skip to a certain song, hold Ctrl + F, type T followed by the track number, and click Next.*


Note: I feel I should clarify that they do use a lot of different tunings for this album. Most noteably, their
custom tuning (basically Standard but with the low E set to B), which I got from their studio documentary
video here: https://youtu.be/sy80RQwg0-A?t=4m11s


Tracklist:

T01.  Last Looks
T02.  Retrograde
T03.  Lost Positives
T04.  Ghost
T05.  Aquamarine
T06.  Mirror Box
T07.  Demons
T08.  The Afterglow
T09.  Cut and Run
T10.  Secret's Safe
T11.  Whiplash
T12.  Wake Up




____________________________________________________________________________________________________

                                          T01.   LAST LOOKS
____________________________________________________________________________________________________





Tuning: Custom Tuning (B A D G B E)
As stated here: https://youtu.be/sy80RQwg0-A?t=4m11s
 
 
[Intro]
Guitar 1:
           T          T          T          T          T
E||-------------------------------------------------------------------|
B||-------------------------------------------------------------------|
G||-------------------------------------------------------------------|
D||-------------------------------------------------------------------| [x4]
A||-------------------------------------------------------4--4--4--4--|
B||--3h6p0-14p0-3h6p0-14p0-3h6p0-14p0-3h6p0-14p0-3h6p0-14-2--2--2--2--|


Guitar 2:
E||-------------------------------------------------------------------|
B||-------------------------------------------------------------------|
G||-------------------------------------------------------6--6--6--6--|
D||-------------------------------------------------------x--x--x--x--|
A||-------------------------------------------------------4--4--4--4--|
B||-------------------------------------------------------------------|


E||-------------------------------------------------------------------|
B||-------------------------------------------------------------------|
G||-------------------------------------------------------6--6--6--6--|
D||-------------------------------------------------------x--x--x--x--|
A||-------------------------------------------------------4--4--4--4--|
B||-------------------------------------------------------------------|


E||-------------------------------------------------------------------|
B||-------------------------------------------------------------------|
G||-------------------------------------------------------6--6--6--6--|
D||-------------------------------------------------------x--x--x--x--|
A||-------------------------------------------------------4--4--4--4--|
B||--5'\'\'\'\'\'\'\'\'\'\'\'\'\'\'\'\'\'\'\'\'\'\'\'\----------------|


E||-------------------------------------------------------------------|
B||-------------------------------------------------------------------|
G||-------------------------------------------------------6--6--6--6--|
D||-------------------------------------------------------x--x--x--x--|
A||-------------------------------------------------------4--4--4--4--|
B||--4'\'\'\'\'\'\'\'\'\'\'\'\'\'\'\'\'\'\'\'\'\'\'\'\----------------|


Guitar 1:
E||-------------------|
B||-------------------|
G||-------------------|
D||-------------------|
A||--8--8--8--8--9\---|
B||--6--6--6--6--7\---|


Guitar 2:
E||-------------------|
B||-------------------|
G||--10-10-10-10-11\--|
D||--x--x--x--x--x-\--|
A||--8--8--8--8--9-\--|
B||-------------------|



[Pre-Verse]
Guitar 1:
E||-------------------------------------------------------------------|
B||-------------------------------------------------------------------|
G||-------------------------------------------------------------------|
D||-------------------------------------------------------------------|
A||--------0-0-0-4-4-------0-0-0-4-4-------0-0-0-4-4-------5-5-5-4-4--|
B||--7-7-7-----------7-7-7-----------6-6-6-----------6-6-6------------|


E||----------------------------------------------------------|
B||----------------------------------------------------------|
G||----------------------------------------------------------|
D||----------------------------------------------------------|
A||--------0-0-0-4-4-------0-0-0-4-4-4-----------8--8--8--8--|
B||--7-7-7-----------7-7-7-----------2-----------6--6--6--6--|


Guitar 2:
E||----------------------------------------------------------|
B||----------------------------------------------------------|
G||----------------------------------------------10-10-10-10-|
D||----------------------------------------------x--x--x--x--|
A||----------------------------------------------8--8--8--8--|
B||----------------------------------------------------------|



Guitar 1:
E||-------------------------------------------------------------------|
B||-------------------------------------------------------------------|
G||-------------------------------------------------------------------|
D||-------------------------------------------------------------------|
A||--------0-0-0-4-4-------0-0-0-4-4-------0-0-0-4-4-------5-5-5-4-4--|
B||--7-7-7-----------7-7-7-----------6-6-6-----------6-6-6------------|


E||----------------------------------------------------------|
B||----------------------------------------------------------|
G||----------------------------------------------------------|
D||----------------------------------------------------------|
A||--------0-0-0-4-4-------0-0-0-4-4-4--4--4--4--8--8--8--8--|
B||--7-7-7-----------7-7-7-----------2--2--2--2--6--6--6--6--|


Guitar 2:
E||----------------------------------------------------------|
B||----------------------------------------------------------|
G||----------------------------------6--6--6--6--10-10-10-10-|
D||----------------------------------x--x--x--x--x--x--x--x--|
A||----------------------------------4--4--4--4--8--8--8--8--|
B||----------------------------------------------------------|



[Verse]
Guitar 1/2:
E||-------------------------------------------------------------------|
B||-------------------------------------------------------------------|
G||-------------------------------------------------------------------|
D||-------------------------------------------------------------------|
A||--------0-0-0-4-4-------0-0-0-4-4-------0-0-0-4-4-------5-5-5-4-4--|
B||--7-7-7-----------7-7-7-----------6-6-6-----------6-6-6------------|
     . . .           . . .           . . .           . . .


E||-------------------------------------------------|
B||-------------------------------------------------|
G||-------------------------------------------------|
D||-------------------------------------------------|
A||--------0-0-0-4-4-------0-0-0-4-4-4--4--4--4--8--|
B||--7-7-7-----------7-7-7-----------2--2--2--2--6--|
     . . .           . . .


Guitar 2:
E||---------------|
B||---------------|
G||--10-10-10-10--|
D||--x--x--x--x---|
A||--8--8--8--8---|
B||---------------|



[Chorus]
Guitar 1:
E||--------------------------------------------------------|
B||--------------------------------------------------------|
G||--------------------------------------------------------|
D||--------------------------------------------------------|
A||--9----11----12--5----7----9--2----2----2--2----2----2--|
B||--7----9-----10--3----5----7--0----0----0--0----0----0--|


E||--------------------------------------------------------|
B||--------------------------------------------------------|
G||--------------------------------------------------------|
D||--------------------------------------------------------|
A||--9----11----12--5----7----9--2----2----2--2----2----2--|
B||--7----9-----10--3----5----7--0----0----0--0--0-0--0-0--|
                                                 .    .


E||--------------------------------------------------------|
B||--------------------------------------------------------|
G||--------------------------------------------------------|
D||--------------------------------------------------------|
A||--9----11----12--5----7----9--2----2----2--2----2----2--|
B||--7----9-----10--3----5----7--0----0----0--0----0----0--|


E||--------------------------------------------------------|
B||--------------------------------------------------------|
G||--------------------------------------------------------|
D||--------------------------------------------------------|
A||--9----11----12--5----7----9--8--8--8--8--4--4--4--4----|
B||--7----9-----10--3----5----7--6--6--6--6--2--2--2--2----|


Guitar 2:
E||-----------------------------------------------------------------|
B||-----------------------------------------------------------------|
G||--11----11----11--11----11----11--11----11----11--11----11---11--|
D||--x-----x-----x---x-----x-----x---x-----x-----x---x-----x----x---| [x3]
A||--9-----9-----9---9-----9-----9---9-----9-----9---9-----9----9---|
B||-----------------------------------------------------------------|


E||---------------------------------------|
B||---------------------------------------|
G||--11----11----11--11----11----11--11~--|
D||--x-----x-----x---x-----x-----x--------|
A||--9-----9-----9---9-----9-----9--------|
B||---------------------------------------|



[Pre-Verse]
Guitar 1:
E||---------------------------------------------------|
B||---------------------------------------------------|
G||---------------------------------------------------|
D||---------------------------------------------------|
A||--------0-0-0-4-4-------0-0-0-4-4-------0-0-0-4-4--|
B||--7-7-7-----------7-7-7-----------6-6-6------------|



[Verse]
Guitar 1/2:
E||-------------------------------------------------------------------|
B||-------------------------------------------------------------------|
G||-------------------------------------------------------------------|
D||-------------------------------------------------------------------|
A||--------0-0-0-4-4-------0-0-0-4-4-------0-0-0-4-4-------5-5-5-4-4--|
B||--7-7-7-----------7-7-7-----------6-6-6-----------6-6-6------------|


E||----------------------------------------------------------|
B||----------------------------------------------------------|
G||----------------------------------------------------------|
D||----------------------------------------------------------|
A||--------0-0-0-4-4-------0-0-0-4-4-4--4--4--4--8--8--8--8--|
B||--7-7-7-----------7-7-7-----------2--2--2--2--6--6--6--6--|


E||-------------------------------------------------------------------|
B||-------------------------------------------------------------------|
G||-------------------------------------------------------------------|
D||-------------------------------------------------------------------|
A||--------0-0-0-4-4-------0-0-0-4-4-------0-0-0-4-4-------5-5-5-4-4--|
B||--7-7-7-----------7-7-7-----------6-6-6-----------6-6-6------------|


E||----------------------------------------------------------|
B||----------------------------------------------------------|
G||----------------------------------------------------------|
D||----------------------------------------------------------|
A||--------0-0-0-4-4-------0-0-0-4-4-4--4--4--4--8--8--8--8--|
B||--0-0-0-----------0-0-0-----------2--2--2--2--6--6--6--6--|


Guitar 1:
E||--------------------|
B||--------------------|
G||--------------------|
D||--------------------|
A||--4--4--4--4--8--8--|
B||--2--2--2--2--6--6--|



[Chorus]
Guitar 1:
E||--------------------------------------------------------|
B||--------------------------------------------------------|
G||--------------------------------------------------------|
D||--------------------------------------------------------|
A||--9----11----12--5----7----9--2----2----2--2----2----2--|
B||--7----9-----10--3----5----7--0----0----0--0----0----0--|


E||--------------------------------------------------------|
B||--------------------------------------------------------|
G||--------------------------------------------------------|
D||--------------------------------------------------------|
A||--9----11----12--5----7----9--2----2----2--2----2----2--|
B||--7----9-----10--3----5----7--0----0----0--0--0-0--0-0--|
                                                 .    .


E||--------------------------------------------------------|
B||--------------------------------------------------------|
G||--------------------------------------------------------|
D||--------------------------------------------------------|
A||--9----11----12--5----7----9--2----2----2--2----2----2--|
B||--7----9-----10--3----5----7--0----0----0--0----0----0--|


E||------------------------------------------------------|
B||------------------------------------------------------|
G||------------------------------------------------------|
D||------------------------------------------------------|
A||--9----11----12--5----7----9--8--8--8--8--4--4--4--4--|
B||--7----9-----10--3----5----7--6--6--6--6--2--2--2--2--|


E||--------------------------|
B||--------------------------|
G||--------------------------|
D||--------------------------|
A||--4--4--4--4--4--4--4--4--|
B||--2--2--2--2--2--2--2--2--|


Guitar 2:
E||-----------------------------------------------------------------|
B||-----------------------------------------------------------------|
G||--11----11----11--11----11----11--11----11----11--11----11---11--|
D||--x-----x-----x---x-----x-----x---x-----x-----x---x-----x----x---| [x3]
A||--9-----9-----9---9-----9-----9---9-----9-----9---9-----9----9---|
B||-----------------------------------------------------------------|


E||---------------------------------------|
B||---------------------------------------|
G||--11----11----11--11----11----11--11~--|
D||--x-----x-----x---x-----x-----x--------|
A||--9-----9-----9---9-----9-----9--------|
B||---------------------------------------|


E||-------|
B||-------|
G||--11~--|
D||--x----|
A||--9~---|
B||-------|



[Main Riff]
Guitar 1:
           T          T          T          T          T
E||-------------------------------------------------------------------|
B||-------------------------------------------------------------------|
G||-------------------------------------------------------------------|
D||-------------------------------------------------------------------| [x4]
A||-------------------------------------------------------4--4--4--4--|
B||--3h6p0-14p0-3h6p0-14p0-3h6p0-14p0-3h6p0-14p0-3h6p0-14-2--2--2--2--|


E||---------------------------------|
B||---------------------------------|
G||---------------------------------|
D||---------------------------------|
A||--4--4--4--4--4--4--4--4--4--4~--|
B||--2--2--2--2--2--2--2--2--2--2~--|


Guitar 2:
E||-------------------------------------------------------------------|
B||-------------------------------------------------------------------|
G||-------------------------------------------------------6--6--6--6--|
D||-------------------------------------------------------x--x--x--x--|
A||-------------------------------------------------------4--4--4--4--|
B||-------------------------------------------------------------------|


E||-------------------------------------------------------------------|
B||-------------------------------------------------------------------|
G||-------------------------------------------------------6--6--6--6--|
D||-------------------------------------------------------x--x--x--x--|
A||-------------------------------------------------------4--4--4--4--|
B||-------------------------------------------------------------------|


E||-------------------------------------------------------------------|
B||-------------------------------------------------------------------|
G||-------------------------------------------------------6--6--6--6--|
D||-------------------------------------------------------x--x--x--x--|
A||-------------------------------------------------------4--4--4--4--|
B||--5'\'\'\'\'\'\'\'\'\'\'\'\'\'\'\'\'\'\'\'\'\'\'\'\----------------|


E||-------------------------------------------------------------------|
B||-------------------------------------------------------------------|
G||-------------------------------------------------------------------|
D||-------------------------------------------------------------------|
A||-------------------------------------------------------------------|
B||--4'\'\'\'\'\'\'\'\'\'\'\'\'\'\'\'\'\'\'\'\'\'\'\'\----------------|



[Breakdown]
Guitar 1/2:
E||------------------------------------------------------------------|
B||------------------------------------------------------------------|
G||------------------------------------------------------------------|
D||------------------------------------------------------------------|
A||------------------------------------------------------------------|
B||--3----0---0---0---0---0---0---x-3----0---0---0---0---0---0h3h6---|


E||------------------------------------------------------------------|
B||------------------------------------------------------------------|
G||------------------------------------------------------------------|
D||------------------------------------------------------------------|
A||---------------------------------4---4-4---4-x-x-8---8-8---8-x-x--|
B||--2~---0---0---0---0---0---0---x-2---2-2---2-x-x-6---6-6---6-x-x--|


E||------------------------------------------------------------------|
B||------------------------------------------------------------------|
G||------------------------------------------------------------------|
D||--*5-----------------------------*5-------------------------------|
A||------------------------------------------------------------------|
B||-------0---0---0---0---0---0---x------0---0---0---0---0---0h3h6---|


E||--------------------------------------------------------------------|
B||--------------------------------------------------------------------|
G||--6-----------------------------------------------------------------|
D||--------------------------------------------------------------------|
A||---------------------------------4---4-4---4-x-x-8---8-8---8-x-x-x--|
B||-------0---0---0---0---0---0---x-2---2-2---2-x-x-6---6-6---6-x-x-x--|



[Pre-Chorus]
Guitar 1:
E||---------------------------------------------------|
B||---------------------------------------------------|
G||---------------------------------------------------|
D||---------------------------------------------------|
A||--------0-0-0-4-4-------0-0-0-4-4-------0-0-0-4-4--|
B||--7-7-7-----------7-7-7-----------6-6-6------------|



[Chorus]
Guitar 1:
E||--------------------------------------------------------|
B||--------------------------------------------------------|
G||--------------------------------------------------------|
D||--------------------------------------------------------|
A||--9----11----12--5----7----9--2----2----2--2----2----2--|
B||--7----9-----10--3----5----7--0----0----0--0----0----0--|


E||--------------------------------------------------------|
B||--------------------------------------------------------|
G||--------------------------------------------------------|
D||--------------------------------------------------------|
A||--9----11----12--5----7----9--2----2----2--2----2----2--|
B||--7----9-----10--3----5----7--0----0----0--0--0-0--0-0--|
                                                 .    .


E||--------------------------------------------------------|
B||--------------------------------------------------------|
G||--------------------------------------------------------|
D||--------------------------------------------------------|
A||--9----11----12--5----7----9--2----2----2--2----2----2--|
B||--7----9-----10--3----5----7--0----0----0--0----0----0--|


E||------------------------------------------------------|
B||------------------------------------------------------|
G||------------------------------------------------------|
D||------------------------------------------------------|
A||--9----11----12--5----7----9--8--8--8--8--4--4--4--4--|
B||--7----9-----10--3----5----7--6--6--6--6--2--2--2--2--|


E||--------------------------|
B||--------------------------|
G||--------------------------|
D||--------------------------|
A||--4--4--4--4--4--4--4--4--|
B||--2--2--2--2--2--2--2--2--|


Guitar 2:
E||-----------------------------------------------------------------|
B||-----------------------------------------------------------------|
G||--11----11----11--11----11----11--11----11----11--11----11---11--|
D||--x-----x-----x---x-----x-----x---x-----x-----x---x-----x----x---| [x3]
A||--9-----9-----9---9-----9-----9---9-----9-----9---9-----9----9---|
B||-----------------------------------------------------------------|


E||---------------------------------------|
B||---------------------------------------|
G||--11----11----11--11----11----11--11~--|
D||--x-----x-----x---x-----x-----x--------|
A||--9-----9-----9---9-----9-----9--------|
B||---------------------------------------|


E||-------|
B||-------|
G||--11~--|
D||--x----|
A||--9~---|
B||-------|



[Ouutro]
Guitar 1/2:
E||------------------------------------------------------------------|
B||------------------------------------------------------------------|
G||------------------------------------------------------------------|
D||------------------------------------------------------------------|
A||------------------------------------------------------------------|
B||--3----0---0---0---0---0---0---x-3----0---0---0---0---0---0h3h6---|


E||------------------------------------------------------------------|
B||------------------------------------------------------------------|
G||------------------------------------------------------------------|
D||------------------------------------------------------------------|
A||---------------------------------4---4-4---4-x-x-8---8-8---8-x-x--|
B||--2~---0---0---0---0---0---0---x-2---2-2---2-x-x-6---6-6---6-x-x--|





____________________________________________________________________________________________________

                                          T02.   RETROGRADE
____________________________________________________________________________________________________





Tuning: Drop B (B F# B E G# C#)


[Intro]
Guitar 1/2:
C#||------------------------------------------------|----------------------------------------------|
G#||------------------------------------------------|----------------------------------------------|
E ||------------------------------------------------|----------------------------------------------|
B ||------------------------------------------------|----------------------------------------------|
F#||---------------------------------------------4--|----------------------------------------------|
B ||--/\---8--7--0-8--7--0------0-8-7-5-0--8--7-----|--8--7--0-8--7--0------x-x---x-x---x-x---x-3--|


C#||-------------------------------------------|---------------------------------------|
G#||-------------------------------------------|---------------------------------------|
E ||-------------------------------------------|-------------------7~------------------|
B ||-------------------------------------------|-------------------7~------------------|
F#||----------------------------------------4--|-------------------5~------\\pick-\\---|
B ||--8--7--0-8--7--0------0-8-7-5-0--8--7-----|--8--7--0-8--7--0-----------\\slide\\--|



[Verse]
Guitar 1/2:
C#||------------------------------------------------------------|
G#||------------------------------------------------------------|
E ||------------------------------------------------------------|
B ||------------------------------------------------------------|
F#||--5-------------5-----------------5-----------5-------------|
B ||-----0-0---0-0-----0-0---0-0--------0---0-0------0-0---0-0--|


C#||--------------------------------------------------------------|
G#||--------------------------------------------------------------|
E ||--------------------------------------------------------------|
B ||--7-------------7-----------------7-----------7---------------|
F#||--4-------------4-----------------4-----------4---------------|
B ||-----0-0---0-0-----0-0---0-0--------0---0-0------x-x-x-x-x-x--|


C#||-----------------------------------|
G#||-----------------------------------|
E ||-----------------------------------|
B ||-----------------------------------| [x2]
F#||-----------------------------------|
B ||--8-8-8-8-8-8-7-7-5-5-5-5-5-5-7-7--|



[Pre-Chorus]
Guitar 1/2:
C#||----------------------------------------------------------------|
G#||----------------------------------------------------------------|
E ||----------------------------------------------------------------|
B ||----------------------------------------------------------------|
F#||--5-------------5-----------------5-----------------------------|
B ||-----0-0---0-0-----0-0---0-0--------0---0-0---0---'5\'\'\'\'\'--|



[Chorus]
Guitar 1:
C#||---------------------------------------------------------------------------------------------------|
G#||--15-15-15-15-15-15-15-15-13-13-13-13-------------------------------------------------13-13-13-13--|
E ||--------------------------------------15-15-12-15-14-14-14-14-14-14-14-14-12-12-12-12--------------|
B ||---------------------------------------------------------------------------------------------------|
F#||---------------------------------------------------------------------------------------------------|
B ||---------------------------------------------------------------------------------------------------|


C#||--------------------------------------------------12-12-12-12-12-12-12-12-12h13-13-13-13-13-13-13--|
G#||---------------------------------------------------------------------------------------------------|
E ||--14-14-14-14-14-14-14-14-12-12-12-12-12-12-12-12--------------------------------------------------|
B ||---------------------------------------------------------------------------------------------------|
F#||---------------------------------------------------------------------------------------------------|
B ||---------------------------------------------------------------------------------------------------|


C#||--------------------------------------------------------------------------12-12-12-12--------------|
G#||--15-15-15-15-15-15-15-15-13-13-13-13-------------------------------------------------13-13-13-13--|
E ||--------------------------------------15-15-12-15-14-14-14-14-14-14-14-14--------------------------|
B ||---------------------------------------------------------------------------------------------------|
F#||---------------------------------------------------------------------------------------------------|
B ||---------------------------------------------------------------------------------------------------|


C#||--13-13-13-13-13-13-13-13-17-17-17-17-17-17-17-17-24-24-24-24-24-24-24-24-24b25-25-25-25-25-25-25--|
G#||---------------------------------------------------------------------------------------------------|
E ||---------------------------------------------------------------------------------------------------|
B ||---------------------------------------------------------------------------------------------------|
F#||---------------------------------------------------------------------------------------------------|
B ||---------------------------------------------------------------------------------------------------|


Guitar 2:
C#||---------------------------------------------------------------|
G#||---------------------------------------------------------------|
E ||--------------------------------------7-7-7-7-7-7-7-7-7-7-7-7--|
B ||--8-8-8-8-8-8-8-8-8-8-8-8-10-10-10-10-7-7-7-7-7-7-7-7-7-7-7-7--|
F#||--8-8-8-8-8-8-8-8-8-8-8-8-10-10-10-10-5-5-5-5-5-5-5-5-5-5-5-5--|
B ||--8-8-8-8-8-8-8-8-8-8-8-8-10-10-10-10--------------------------|


C#||---------------------------------------------------------------|
G#||---------------------------------------------------------------|
E ||--------------10-10-10-10-10-10-10-10-12-12-12-12-12-12-12-12--|
B ||--10-10-10-10-10-10-10-10-10-10-10-10-12-12-12-12-12-12-12-12--|
F#||--7--7--7--7--8--8--8--8--8--8--8--8--10-10-10-10-10-10-10-10--|
B ||---------------------------------------------------------------|


C#||-----------------------------------|
G#||-----------------------------------|
E ||-----------------------------------|
B ||------------------3-3-3-3-2-2-2-2--|
F#||------------------5-5-5-5-4-4-4-4--|
B ||--0-0-0-0-0-0-0-0------------------|
      . . . . . . .


C#||---------------------------------------------------------------|
G#||---------------------------------------------------------------|
E ||--------------------------------------7-7-7-7-7-7-7-7-7-7-7-7--|
B ||--8-8-8-8-8-8-8-8-8-8-8-8-10-10-10-10-7-7-7-7-7-7-7-7-7-7-7-7--|
F#||--8-8-8-8-8-8-8-8-8-8-8-8-10-10-10-10-5-5-5-5-5-5-5-5-5-5-5-5--|
B ||--8-8-8-8-8-8-8-8-8-8-8-8-10-10-10-10--------------------------|


C#||---------------------------------------------------------------|
G#||---------------------------------------------------------------|
E ||--------------10-10-10-10-10-10-10-10-12-12-12-12-12-12-12-12--|
B ||--10-10-10-10-10-10-10-10-10-10-10-10-12-12-12-12-12-12-12-12--|
F#||--7--7--7--7--8--8--8--8--8--8--8--8--10-10-10-10-10-10-10-10--|
B ||---------------------------------------------------------------|


C#||---------------------------------------|
G#||---------------------------------------|
E ||----------7-7-7-7----------------------|
B ||--0-0-0-0-7-7-7-7-0-0-0-0--------------|
F#||--0-0-0-0-5-5-5-5-0-0-0-0--\\pick-\\---|
B ||--0-0-0-0---------0-0-0-0---\\slide\\--|
      . . . .         . . . .



[Verse]
Guitar 1/2:
C#||------------------------------------------------------------|
G#||------------------------------------------------------------|
E ||------------------------------------------------------------|
B ||------------------------------------------------------------|
F#||--5-------------5-----------------5-----------5-------------|
B ||-----0-0---0-0-----0-0---0-0--------0---0-0------0-0---0-0--|


C#||--------------------------------------------------------------|
G#||--------------------------------------------------------------|
E ||--------------------------------------------------------------|
B ||--7-------------7-----------------7-----------7---------------|
F#||--4-------------4-----------------4-----------4---------------|
B ||-----0-0---0-0-----0-0---0-0--------0---0-0------x-x-x-x-x-x--|


C#||-----------------------------------|
G#||-----------------------------------|
E ||-----------------------------------|
B ||-----------------------------------| [x2]
F#||-----------------------------------|
B ||--8-8-8-8-8-8-7-7-5-5-5-5-5-5-7-7--|



[Pre-Chorus]
Guitar 1/2:
C#||----------------------------------------------------------------|
G#||----------------------------------------------------------------|
E ||----------------------------------------------------------------|
B ||----------------------------------------------------------------|
F#||--5-------------5-----------------5-----------------------------|
B ||-----0-0---0-0-----0-0---0-0--------0---0-0---0---'5\'\'\'\'\'--|



[Chorus]
Guitar 1:
C#||---------------------------------------------------------------------------------------------------|
G#||--15-15-15-15-15-15-15-15-13-13-13-13-------------------------------------------------13-13-13-13--|
E ||--------------------------------------15-15-12-15-14-14-14-14-14-14-14-14-12-12-12-12--------------|
B ||---------------------------------------------------------------------------------------------------|
F#||---------------------------------------------------------------------------------------------------|
B ||---------------------------------------------------------------------------------------------------|


C#||--------------------------------------------------12-12-12-12-12-12-12-12-12h13-13-13-13-13-13-13--|
G#||---------------------------------------------------------------------------------------------------|
E ||--14-14-14-14-14-14-14-14-12-12-12-12-12-12-12-12--------------------------------------------------|
B ||---------------------------------------------------------------------------------------------------|
F#||---------------------------------------------------------------------------------------------------|
B ||---------------------------------------------------------------------------------------------------|


C#||--------------------------------------------------------------------------12-12-12-12--------------|
G#||--15-15-15-15-15-15-15-15-13-13-13-13-------------------------------------------------13-13-13-13--|
E ||--------------------------------------15-15-12-15-14-14-14-14-14-14-14-14--------------------------|
B ||---------------------------------------------------------------------------------------------------|
F#||---------------------------------------------------------------------------------------------------|
B ||---------------------------------------------------------------------------------------------------|


C#||--13-13-13-13-13-13-13-13-17-17-17-17-17-17-17-17-24-24-24-24-24-24-24-24-24b25-25-25-25-25-25-25--|
G#||---------------------------------------------------------------------------------------------------|
E ||---------------------------------------------------------------------------------------------------|
B ||---------------------------------------------------------------------------------------------------|
F#||---------------------------------------------------------------------------------------------------|
B ||---------------------------------------------------------------------------------------------------|


Guitar 2:
C#||---------------------------------------------------------------|
G#||---------------------------------------------------------------|
E ||--------------------------------------7-7-7-7-7-7-7-7-7-7-7-7--|
B ||--8-8-8-8-8-8-8-8-8-8-8-8-10-10-10-10-7-7-7-7-7-7-7-7-7-7-7-7--|
F#||--8-8-8-8-8-8-8-8-8-8-8-8-10-10-10-10-5-5-5-5-5-5-5-5-5-5-5-5--|
B ||--8-8-8-8-8-8-8-8-8-8-8-8-10-10-10-10--------------------------|


C#||---------------------------------------------------------------|
G#||---------------------------------------------------------------|
E ||--------------10-10-10-10-10-10-10-10-12-12-12-12-12-12-12-12--|
B ||--10-10-10-10-10-10-10-10-10-10-10-10-12-12-12-12-12-12-12-12--|
F#||--7--7--7--7--8--8--8--8--8--8--8--8--10-10-10-10-10-10-10-10--|
B ||---------------------------------------------------------------|


C#||-----------------------------------|
G#||-----------------------------------|
E ||-----------------------------------|
B ||------------------3-3-3-3-2-2-2-2--|
F#||------------------5-5-5-5-4-4-4-4--|
B ||--0-0-0-0-0-0-0-0------------------|
      . . . . . . .


C#||---------------------------------------------------------------|
G#||---------------------------------------------------------------|
E ||--------------------------------------7-7-7-7-7-7-7-7-7-7-7-7--|
B ||--8-8-8-8-8-8-8-8-8-8-8-8-10-10-10-10-7-7-7-7-7-7-7-7-7-7-7-7--|
F#||--8-8-8-8-8-8-8-8-8-8-8-8-10-10-10-10-5-5-5-5-5-5-5-5-5-5-5-5--|
B ||--8-8-8-8-8-8-8-8-8-8-8-8-10-10-10-10--------------------------|


C#||---------------------------------------------------------------|
G#||---------------------------------------------------------------|
E ||--------------10-10-10-10-10-10-10-10-12-12-12-12-12-12-12-12--|
B ||--10-10-10-10-10-10-10-10-10-10-10-10-12-12-12-12-12-12-12-12--|
F#||--7--7--7--7--8--8--8--8--8--8--8--8--10-10-10-10-10-10-10-10--|
B ||---------------------------------------------------------------|


C#||-----------------------------------|
G#||-----------------------------------|
E ||----------7-7-7-7---------7-7-7-7--|
B ||--0-0-0-0-7-7-7-7-0-0-0-0-7-7-7-7--|
F#||--0-0-0-0-5-5-5-5-0-0-0-0-5-5-5-5--|
B ||--0-0-0-0---------0-0-0-0----------|
      . . . .         . . . .



[Bridge]
Guitar 1/2:
C#||-------------------------------------------|----------------------------------------------|
G#||-------------------------------------------|----------------------------------------------|
E ||-------------------------------------------|----------------------------------------------|
B ||-------------------------------------------|----------------------------------------------| x2
F#||----------------------------------------4--|----------------------------------------------|
B ||--8--7--0-8--7--0------0-8-7-5-0--8--7-----|--8--7--0-8--7--0------x-x---x-x---x-x---x-3--|



[Breakdown]
Guitar 1/2:
C#||-------------------------------------------|----------------------------------------------|
G#||-------------------------------------------|----------------------------------------------|
E ||-------------------------------------------|----------------------------------------------|
B ||-------------------------------------------|----------------------------------------------|
F#||----------------------------------------4--|----------------------------------------------|
B ||--8--7--0-8--7--0------0-8-7-5-0--8--7-----|--8--7--0-8--7--0------x-x---x-x---x-x---x-3--|


C#||-------------------------------------------|----------------------------------------------|
G#||-------------------------------------------|----------------------------------------------|
E ||-------------------------------------------|----------------------------------------------|
B ||-------------------------------------------|----------------------------------------------|
F#||----------------------------------------4--|----------------------------------------------|
B ||--8--7--0-8--7--0------0-8-7-5-0--8--7-----|--8--7--0-8--7--0-----------------------------|


C#||-------------------------------------------|----------------------------------------------|
G#||-------------------------------------------|-----------------------------------6----------|
E ||-------------------------------------------|----------------------------------------------|
B ||-------------------------------------------|-------------------------------------------5--|
F#||----------5--------------------------------|--5-------4--------------------------5--------|
B ||--8--7--0----0--0--------------------------|-----0--0----0--0----------------------7h8----|


C#||-------------------------------------------|----------------------------------------------|
G#||-------------------------------------------|----------------------------------------------|
E ||-------------------------------------------|----------------------------------------------|
B ||-------------------------------------------|----------------------------------------------|
F#||----------5--------------------------------|--5-------4-----------------------------------|
B ||--8--7--0----0--0--------------------------|-----0--0----0--0-----------------------------|


Guitar 1:
C#||-------------------|
G#||-------------------|
E ||-------------------|
B ||-------------------|
F#||-------------------|
B ||--0-0-0-0-0-0-0-0--|


Guitar 2:
C#||--------------|
G#||--------------|
E ||--------------|
B ||--------------|
F#||--\\pick-\\---|
B ||---\\slide\\--|



[Chorus / Outro]
Guitar 1:
C#||---------------------------------------------------------------------------------------------------|
G#||--15-15-15-15-15-15-15-15-13-13-13-13-------------------------------------------------13-13-13-13--|
E ||--------------------------------------15-15-12-15-14-14-14-14-14-14-14-14-12-12-12-12--------------|
B ||---------------------------------------------------------------------------------------------------|
F#||---------------------------------------------------------------------------------------------------|
B ||---------------------------------------------------------------------------------------------------|


C#||--------------------------------------------------12-12-12-12-12-12-12-12-12h13-13-13-13-13-13-13--|
G#||---------------------------------------------------------------------------------------------------|
E ||--14-14-14-14-14-14-14-14-12-12-12-12-12-12-12-12--------------------------------------------------|
B ||---------------------------------------------------------------------------------------------------|
F#||---------------------------------------------------------------------------------------------------|
B ||---------------------------------------------------------------------------------------------------|


C#||--------------------------------------------------------------------------12-12-12-12--------------|
G#||--15-15-15-15-15-15-15-15-13-13-13-13-------------------------------------------------13-13-13-13--|
E ||--------------------------------------15-15-12-15-14-14-14-14-14-14-14-14--------------------------|
B ||---------------------------------------------------------------------------------------------------|
F#||---------------------------------------------------------------------------------------------------|
B ||---------------------------------------------------------------------------------------------------|


C#||--13-13-13-13-13-13-13-13-17-17-17-17-17-17-17-17--|
G#||---------------------------------------------------|
E ||---------------------------------------------------|
B ||---------------------------------------------------|
F#||---------------------------------------------------|
B ||---------------------------------------------------|


Guitar 2:
C#||---------------------------------------------------------------|
G#||---------------------------------------------------------------|
E ||--------------------------------------7-7-7-7-7-7-7-7-7-7-7-7--|
B ||--8-8-8-8-8-8-8-8-8-8-8-8-10-10-10-10-7-7-7-7-7-7-7-7-7-7-7-7--|
F#||--8-8-8-8-8-8-8-8-8-8-8-8-10-10-10-10-5-5-5-5-5-5-5-5-5-5-5-5--|
B ||--8-8-8-8-8-8-8-8-8-8-8-8-10-10-10-10--------------------------|


C#||---------------------------------------------------------------|
G#||---------------------------------------------------------------|
E ||--------------10-10-10-10-10-10-10-10-12-12-12-12-12-12-12-12--|
B ||--10-10-10-10-10-10-10-10-10-10-10-10-12-12-12-12-12-12-12-12--|
F#||--7--7--7--7--8--8--8--8--8--8--8--8--10-10-10-10-10-10-10-10--|
B ||---------------------------------------------------------------|


C#||-----------------------------------|
G#||-----------------------------------|
E ||-----------------------------------|
B ||------------------3-3-3-3-2-2-2-2--|
F#||------------------5-5-5-5-4-4-4-4--|
B ||--0-0-0-0-0-0-0-0------------------|
      . . . . . . .


C#||---------------------------------------------------------------|
G#||---------------------------------------------------------------|
E ||--------------------------------------7-7-7-7-7-7-7-7-7-7-7-7--|
B ||--8-8-8-8-8-8-8-8-8-8-8-8-10-10-10-10-7-7-7-7-7-7-7-7-7-7-7-7--|
F#||--8-8-8-8-8-8-8-8-8-8-8-8-10-10-10-10-5-5-5-5-5-5-5-5-5-5-5-5--|
B ||--8-8-8-8-8-8-8-8-8-8-8-8-10-10-10-10--------------------------|


C#||---------------------------------------------------------------|
G#||---------------------------------------------------------------|
E ||--------------10-10-10-10-10-10-10-10-12-12-12-12-12-12-12-12--|
B ||--10-10-10-10-10-10-10-10-10-10-10-10-12-12-12-12-12-12-12-12--|
F#||--7--7--7--7--8--8--8--8--8--8--8--8--10-10-10-10-10-10-10-10--|
B ||---------------------------------------------------------------|


Guitar 1/2:
C#||-------------------------------------------------------------|
G#||-------------------------------------------------------------|
E ||----------7-7-7-7---------7-7-7-7---------7-7-7-7---------7--|
B ||--0-0-0-0-7-7-7-7-0-0-0-0-7-7-7-7-0-0-0-0-7-7-7-7-0-0-0-0-7--|
F#||--0-0-0-0-5-5-5-5-0-0-0-0-5-5-5-5-0-0-0-0-5-5-5-5-0-0-0-0-5--|
B ||--0-0-0-0---------0-0-0-0---------0-0-0-0---------0-0-0-0----|
      . . . .         . . . .         . . . .         . . . .





____________________________________________________________________________________________________

                                        T03.   LOST POSITIVES
____________________________________________________________________________________________________





Tuning: Custom Tuning (B A D G B E)


[Intro]
Guitar 1:
E||-------------------------------------------------------------------|
B||-------------------------------------------------------------------|
G||-------------------------------------------------------------------|
D||--4-4-4-4-4-4-4---5-5-5-5-5-5-5-5-4-4-4-4-4-4-4-4-4-4-4-4-4-4-4-4--|
A||--3-3-3-3-3-3-3-0-7-7-7-7-7-7-7-7-5-5-5-5-5-5-5-5-5-5-5-5-5-5-5-5--|
B||-------------------------------------------------------------------|


E||-------------------------------------------------------------------|
B||-------------------------------------------------------------------|
G||-------------------------------------------------------------------|
D||--4-4-4-4-4-4-4-5-5-5-5-5-5-5-5-5-4-4-4-4-4-4-4-4-4~---------------|
A||--3-3-3-3-3-3-3-7-7-7-7-7-7-7-7-5-5-5-5-5-5-5-5-5-5~---------------|
B||-------------------------------------------------------------------|



[Pre-Verse]
Guitar 1/2:
E||------------------------------------------------------------------|
B||------------------------------------------------------------------|
G||------------------------------------------------------------------|
D||------------------------------------------------------------------|
A||------------------------------------------------------------------|
B||--0-0-0-0-12-10-0-8\--0-0-0-5-7--8\--0---0-0-0-0-0-5-7--8--1-1-1--|


E||------------------------------------------------------------------|
B||------------------------------------------------------------------|
G||------------------------------------------------------------------|
D||------------------------------------------------------------------|
A||--------------------------------------------------------5---------|
B||--0-0-0-0-12-10-0-8\--0-0-0-5-7--8\--0---0-0-0---0-8-7-----3~-----|


E||------------------------------------------------------------------|
B||------------------------------------------------------------------|
G||------------------------------------------------------------------|
D||------------------------------------------------------------------|
A||------------------------------------------------------------------|
B||--0-0-0-0-12-10-0-8\--0-0-0-5-7--8\--0---0-0-0-0-0-5-7--8--1-1-1--|


E||------------------------------------------------------------------|
B||------------------------------------------------------------------|
G||------------------------------------------------------------------|
D||------------------------------------------------------------------|
A||------------------------------------------------------------------|
B||--0-0-0-0-12-10-0-8\--0-0-0-5-7--8\--0---0-0-0-0-0-0--------------|



[Verse]
Guitar 1:
E||-------------------------------------------------------------------|
B||-------------------------------------------------------------------|
G||--4-4-4-4-4-4-4-4-4-4-4-4-4-4-4-4-4-4-4-4-4-4-4-4-4-4-4-4-4-4-4-4--|
D||-------------------------------------------------------------------| [x4]
A||-------------------------------------------------------------------|
B||-------------------------------------------------------------------|
     . . . . . . . . . . . . . . . . . . . . . . . . . . . . . . . . 


Guitar 2:
E||-----------------------------------|-----------------------------------|
B||--3~----------------8~--------10~--|--3~----------------8~--------12~--|
G||--x-----------------x---------x----|--x-----------------x---------x----|
D||--x-----------------x---------x----|--x-----------------x---------x----|
A||--x-----------------x---------x----|--x-----------------x---------x----|
B||--0~----------------5~--------8~---|--0~----------------5~--------8~---|


E||-------|
B||--13~--|
G||-------|
D||-------|
A||-------|
B||-------|



[Chorus]
Guitar 1:
E||-----------------------------------------------------|
B||-----------------------------------------------------|
G||-----------------------------------------------------|
D||-----------------------------------------------------|
A||--3--3--3--3--3--3--3--3--7--7--7--7--7--7--7--7-----|
B||--1--1--1--1--1--1--1--1--5--5--5--5--5--5--5--5-----|


E||-----------------------------------------------------|
B||-----------------------------------------------------|
G||-----------------------------------------------------|
D||-----------------------------------------------------|
A||--5--5--5--5--5--5--5--5--5--5--5--5--5-2-2-2-2-2-2--|
B||--3--3--3--3--3--3--3--3--3--3--3--3--3-0-0-0-0-0-0--|


E||-----------------------------------------------------|
B||-----------------------------------------------------|
G||-----------------------------------------------------|
D||-----------------------------------------------------|
A||--3--3--3--3--3--3--3--3--7--7--7--7--7--7--7--7-----|
B||--1--1--1--1--1--1--1--1--5--5--5--5--5--5--5--5-----|


E||--------------------------------------------------------|
B||--------------------------------------------------------|
G||-------------------------------4---------5---5-5-5-5-5--|
D||-------------------------------x---------x---x-x-x-x-x--| [x2]
A||--5--5--5--5--5--5--5--5-5-5-5-2---5-5-5-3---3-3-3-3-3--|
B||--3--3--3--3--3--3--3--3-3-3-3-----3-3-3----------------|


Guitar 2:
E||---------------------------------------------------|---------------------------------------------------|
B||--5--5--5--5--5--5--5--5--8--8--8--8---------------|--7--7--7--7--7--7--7--7--7--7--7--7--7--7--7--7---|
G||-------------------------------------7--7--7--7----|---------------------------------------------------|
D||---------------------------------------------------|---------------------------------------------------|
A||---------------------------------------------------|---------------------------------------------------|
B||---------------------------------------------------|---------------------------------------------------|


E||---------------------------------------------------|---------------------------------------------------|
B||--5--5--5--5--5--5--5--5--8--8--8--8---------------|--7--7--7--7--7--7--7--7---------------------------|
G||--------------------------------------7--7--7--7---|--------------------------7--7--7--7--7--7--7--7---|
D||---------------------------------------------------|---------------------------------------------------|
A||---------------------------------------------------|---------------------------------------------------|
B||---------------------------------------------------|---------------------------------------------------|


E||--15-15-15-15-15-15-15-15-15-15-15-15-10-10-10-10--|--14-14-14-14-14-14-14-14-14-14-14-14-14-14-14-14--|
B||---------------------------------------------------|---------------------------------------------------|
G||---------------------------------------------------|---------------------------------------------------|
D||---------------------------------------------------|---------------------------------------------------|
A||---------------------------------------------------|---------------------------------------------------|
B||---------------------------------------------------|---------------------------------------------------|


E||--15-15-15-15-15-15-15-15-15-15-15-15-10-10-10-10--|--14-14-14-14-14-14-14-14-10-10-10-10-10-10-10-10--|
B||---------------------------------------------------|---------------------------------------------------|
G||---------------------------------------------------|---------------------------------------------------|
D||---------------------------------------------------|---------------------------------------------------|
A||---------------------------------------------------|---------------------------------------------------|
B||---------------------------------------------------|---------------------------------------------------|



Guitar 3 (Listen for when to come in):
E||---------------------------|
B||---------------------------|
G||--14/16\14----12~---11-9~--|
D||--x-/x-\x-----x-----x--x---|
A||--12/14\12----10~---9--7~--|
B||---------------------------|



[Pre-Verse]
Guitar 1/2:
E||------------------------------------------------------------------|
B||------------------------------------------------------------------|
G||------------------------------------------------------------------|
D||------------------------------------------------------------------|
A||------------------------------------------------------------------|
B||--0-0-0-0-12-10-0-8\--0-0-0-5-7--8\--0---0-0-0-0-0-5-7--8--1-1-1--|


E||---------------------------------------------------------------------|
B||---------------------------------------------------------------------|
G||---------------------------------------------------------------------|
D||---------------------------------------------------------------------|
A||---------------------------------------------------------------------|
B||--0-0-0-0-12-10-0-8\--0-0-0-5-7--8\--0---0-0-0-0-0-'5\'\'\'\'\'\'\'--|



[Verse]
Guitar 1:
E||-------------------------------------------------------------------|
B||-------------------------------------------------------------------|
G||--4-4-4-4-4-4-4-4-4-4-4-4-4-4-4-4-4-4-4-4-4-4-4-4-4-4-4-4-4-4-4-4--|
D||-------------------------------------------------------------------| [x4]
A||-------------------------------------------------------------------|
B||-------------------------------------------------------------------|
     . . . . . . . . . . . . . . . . . . . . . . . . . . . . . . . . 


Guitar 2:
E||-----------------------------------|-----------------------------------|
B||--3~----------------8~--------10~--|--3~----------------8~--------12~--|
G||--x-----------------x---------x----|--x-----------------x---------x----|
D||--x-----------------x---------x----|--x-----------------x---------x----|
A||--x-----------------x---------x----|--x-----------------x---------x----|
B||--0~----------------5~--------8~---|--0~----------------5~--------8~---|


E||-------|
B||--13~--|
G||-------|
D||-------|
A||-------|
B||-------|



[Chorus]
Guitar 1:
E||-----------------------------------------------------|
B||-----------------------------------------------------|
G||-----------------------------------------------------|
D||-----------------------------------------------------|
A||--3--3--3--3--3--3--3--3--7--7--7--7--7--7--7--7-----|
B||--1--1--1--1--1--1--1--1--5--5--5--5--5--5--5--5-----|


E||-----------------------------------------------------|
B||-----------------------------------------------------|
G||-----------------------------------------------------|
D||-----------------------------------------------------|
A||--5--5--5--5--5--5--5--5--5--5--5--5--5-2-2-2-2-2-2--|
B||--3--3--3--3--3--3--3--3--3--3--3--3--3-0-0-0-0-0-0--|


E||-----------------------------------------------------|
B||-----------------------------------------------------|
G||-----------------------------------------------------|
D||-----------------------------------------------------|
A||--3--3--3--3--3--3--3--3--7--7--7--7--7--7--7--7-----|
B||--1--1--1--1--1--1--1--1--5--5--5--5--5--5--5--5-----|


E||--------------------------------------------------------|
B||--------------------------------------------------------|
G||-------------------------------4---------5---5-5-5-5-5--|
D||-------------------------------x---------x---x-x-x-x-x--| [x2]
A||--5--5--5--5--5--5--5--5-5-5-5-2---5-5-5-3---3-3-3-3-3--|
B||--3--3--3--3--3--3--3--3-3-3-3-----3-3-3----------------|


Guitar 2:
E||---------------------------------------------------|---------------------------------------------------|
B||--5--5--5--5--5--5--5--5--8--8--8--8---------------|--7--7--7--7--7--7--7--7--7--7--7--7--7--7--7--7---|
G||-------------------------------------7--7--7--7----|---------------------------------------------------|
D||---------------------------------------------------|---------------------------------------------------|
A||---------------------------------------------------|---------------------------------------------------|
B||---------------------------------------------------|---------------------------------------------------|


E||---------------------------------------------------|---------------------------------------------------|
B||--5--5--5--5--5--5--5--5--8--8--8--8---------------|--7--7--7--7--7--7--7--7---------------------------|
G||--------------------------------------7--7--7--7---|--------------------------7--7--7--7--7--7--7--7---|
D||---------------------------------------------------|---------------------------------------------------|
A||---------------------------------------------------|---------------------------------------------------|
B||---------------------------------------------------|---------------------------------------------------|


E||--15-15-15-15-15-15-15-15-15-15-15-15-10-10-10-10--|--14-14-14-14-14-14-14-14-14-14-14-14-14-14-14-14--|
B||---------------------------------------------------|---------------------------------------------------|
G||---------------------------------------------------|---------------------------------------------------|
D||---------------------------------------------------|---------------------------------------------------|
A||---------------------------------------------------|---------------------------------------------------|
B||---------------------------------------------------|---------------------------------------------------|


E||--15-15-15-15-15-15-15-15-15-15-15-15-10-10-10-10--|--14-14-14-14-14-14-14-14-10-10-10-10-10-10-10-10--|
B||---------------------------------------------------|---------------------------------------------------|
G||---------------------------------------------------|---------------------------------------------------|
D||---------------------------------------------------|---------------------------------------------------|
A||---------------------------------------------------|---------------------------------------------------|
B||---------------------------------------------------|---------------------------------------------------|



Guitar 3 (Listen for when to come in):
E||---------------------------|
B||---------------------------|
G||--14/16\14----12~---11-9~--|
D||--x-/x-\x-----x-----x--x---|
A||--12/14\12----10~---9--7~--|
B||---------------------------|



[Bridge]
Guitar 1/2:
E||-------------------------------------------------------------------------------------------------|
B||-------------------------------------------------------------------------------------------------|
G||-------------------------------------------------------------------------------------------------|
D||--2---2-----2---2-----5---5---------5---5------4---4-----4---4-----------------------------------|
A||--3---3-----3---3-----7---7---------7---7------5---5-----5---5------------2---------3------------|
B||--1---1---1-1---1---1-5---5---5-5-5-5---5------3---3---3-3---3---3--3-3-3-----3-3-3---0--0--0-0--|
             .         .         . . .                    .         .  . . .     . . .         .


E||---------------------------------------------------------------------------|
B||---------------------------------------------------------------------------|
G||---------------------------------------------------------------------------|
D||--2---2-----2---2-----5---5-----5--------------4---4-----4-------------4~--|
A||--3---3-----3---3-----7---7-----7--------------5---5-----5-------------5~--|
B||--1---1---1-1---1---1-5---5---5-5--------------3---3---3-3---3---3---3-3~--|
             .         .         .                        .     .   .   .



[Interlude]
Guitar 1:
E||-----------------------------------------------------|
B||-----------------------------------------------------|
G||-----------------------------------------------------|
D||-----------------------------------------------------|
A||--3--3--3--3--3--3--3--3--7--7--7--7--7--7--7--7-----|
B||--1--1--1--1--1--1--1--1--5--5--5--5--5--5--5--5-----|


E||-----------------------------------------------------|
B||-----------------------------------------------------|
G||-----------------------------------------------------|
D||-----------------------------------------------------|
A||--5--5--5--5--5--5--5--5--5--5--5--5--5-2-2-2-2-2-2--|
B||--3--3--3--3--3--3--3--3--3--3--3--3--3-0-0-0-0-0-0--|


E||-----------------------------------------------------|
B||-----------------------------------------------------|
G||-----------------------------------------------------|
D||-----------------------------------------------------|
A||--3--3--3--3--3--3--3--3--7--7--7--7--7--7--7--7-----|
B||--1--1--1--1--1--1--1--1--5--5--5--5--5--5--5--5-----|


E||--------------------------|
B||--------------------------|
G||--------------------------|
D||--------------------------|
A||--5--5--5--5--5--5--5--5--|
B||--3--3--3--3--3--3--3--3--|


Guitar 2:
E||-------------------------------------|-------------------------------------|
B||--7-7-7-7-7-7-7-7-7b8-8-8-8----------|--7-7-7-7-7-7-7-7-7-7-7-7-7-7-7-7----|
G||----------------------------7-7-7-7--|-------------------------------------|
D||-------------------------------------|-------------------------------------|
A||-------------------------------------|-------------------------------------|
B||-------------------------------------|-------------------------------------|


E||-------------------------------------|-------------------------------------|
B||--7-7-7-7-7-7-7-7-7b8-8-8-8----------|--7-7-7-7-7-7-7-7--------------------|
G||----------------------------7-7-7-7--|-------------------------------------|
D||-------------------------------------|-------------------------------------|
A||-------------------------------------|-------------------------------------|
B||-------------------------------------|-------------------------------------|



[Chorus]
Guitar 1:
E||-------------------------------------------------------------------|
B||-------------------------------------------------------------------|
G||-------------------------------------------------------------------|
D||--2-2-2-2-2-2-2-2-2-2-2-2-2-2-2-2-5-5-5-5-5-5-5-5-5-5-5-5-5-5-5-5--|
A||-------------------------------------------------------------------|
B||-------------------------------------------------------------------|


E||-------------------------------------------------------------------|
B||-------------------------------------------------------------------|
G||-------------------------------------------------------------------|
D||--4-4-4-4-4-4-4-4-4-4-4-4-4-4-4-4-4-4-4-4-4-4-4-4-4-4-4-4-4-4-4-4--|
A||-------------------------------------------------------------------|
B||-------------------------------------------------------------------|


E||-------------------------------------------------------------------|
B||-------------------------------------------------------------------|
G||-------------------------------------------------------------------|
D||--2-2-2-2-2-2-2-2-2-2-2-2-2-2-2-2-5-5-5-5-5-5-5-5-5-5-5-5-5-5-5-5--|
A||-------------------------------------------------------------------|
B||-------------------------------------------------------------------|


E||-----------------------------------|
B||-----------------------------------|
G||-----------------------------------|
D||--4-4-4-4-4-4-4-4-4-4-4-4-4-4-4-4--|
A||-----------------------------------|
B||-----------------------------------|


Guitar 2:
E||-------------------------------------|-------------------------------------|
B||--7-7-7-7-7-7-7-7-7b8-8-8-8----------|--7-7-7-7-7-7-7-7-7-7-7-7-7-7-7-7----|
G||----------------------------7-7-7-7--|-------------------------------------|
D||-------------------------------------|-------------------------------------|
A||-------------------------------------|-------------------------------------|
B||-------------------------------------|-------------------------------------|


E||-------------------------------------|-------------------------------------|
B||--7-7-7-7-7-7-7-7-7b8-8-8-8----------|--7-7-7-7-7-7-7-7--------------------|
G||----------------------------7-7-7-7--|-------------------------------------|
D||-------------------------------------|-------------------------------------|
A||-------------------------------------|-------------------------------------|
B||-------------------------------------|-------------------------------------|


Guitar 1/2:
E||---------------------------------|
B||---------------------------------|
G||--------4---------5---5-5-5-5-5--|
D||--------x---------x---x-x-x-x-x--|
A||--5-5-5-2---5-5-5-3---3-3-3-3-3--|
B||--3-3-3-----3-3-3----------------|



[Outro]
Guitar 1/2:
E||---------------------------------------------------------------------|
B||---------------------------------------------------------------------|
G||---------------------------------------------------------------------|
D||--2-2-2-2-2-2-2-2-2/4-4-4-4-4-4-4-4-5-5-5-5-5-5-5-5-7-7-7-7-7-7-7-7--|
A||---------------------------------------------------------------------|
B||---------------------------------------------------------------------|


E||-------------------------------------------------------------------|
B||-------------------------------------------------------------------|
G||-------------------------------------------------------------------|
D||--7/9-9-9-9-9-9-9-9-9-9-9-9-9-9-9-9-4-4-4-4-4-4-4-4-4-4-4-4-2------|
A||--------------------------------------------------------------5-5--|
B||-------------------------------------------------------------------|


E||-------------------------------------------------------------------|
B||-------------------------------------------------------------------|
G||-------------------------------------------------------------------|
D||--2-2-2-2-2-2-2-2-2-2-2-2-2-2-2-2-5-5-5-5-5-5-5-5-5-5-5-5-5-5-5-5--|
A||-------------------------------------------------------------------|
B||-------------------------------------------------------------------|


E||-------------------------------------------------------------------|
B||-------------------------------------------------------------------|
G||-------------------------------------------------------------------|
D||--4-4-4-4-4-4-4-4-4-4-4-4-4-4-4-4---4---4---4---4---4---4---4---4--|
A||-------------------------------------------------------------------|
B||-------------------------------------------------------------------|






____________________________________________________________________________________________________

                                            T04.   GHOST
____________________________________________________________________________________________________





Tuning: Drop C (C G C F A D)


[Intro]
Guitar 1/2:
D||----------------------------|--------------------------------|
A||-------------------------2--|---------------------------7~---|
F||-------------------------2--|---------------------------9b~--|
C||--4---7\4---x-x-x-x-x-------|--0---0-0~--------3---3-3-------|
G||--4---7\4---x-x-x-x-x-'5----|--0---0-0~--------3---3-3-------|
C||--4---7\4---x-x-x-x-x-------|--0---0-0~--------3---3-3-------|


D||----------------------------|--------------------------------|
A||-------------------------2--|--------------------------------|
F||-------------------------2--|--------------------------------|
C||--4---7\4---x-x-x-x-x-x-----|--0---0-0~--------3---3-3-------|
G||--4---7\4---x-x-x-x-x-x-----|--0---0-0~--------3---3-3-------|
C||--4---7\4---x-x-x-x-x-x-----|--0---0-0~--------3---3-3-------|



[Pre-Verse]
Guitar 1/2:
D||----------------------------|--------------------------------|
A||-------------------------2--|---------------------------7~---|
F||-------------------------2--|---------------------------9b~--|
C||--4---7\4---x-x-x-x-x-------|--0---0-0~--------3---3-3-------|
G||--4---7\4---x-x-x-x-x-'5----|--0---0-0~--------3---3-3-------|
C||--4---7\4---x-x-x-x-x-------|--0---0-0~--------3---3-3-------|


D||----------------------------|--------------------------------|
A||----------------------------|--------------------------------|
F||----------------------------|--------------------------------|
C||--4---7\4-------------------|--0---0-0~----------------------|
G||--4---7\4---'5-'5-'5-/9--9--|--0---0-0~----------------------|
C||--4---7\4-------------------|--0---0-0~-------3-3-3-7-7-5-5--|



[Verse]
Guitar 1/2:
D||-------------------------------------------------------------------|
A||-------------------------------------------------------------------|
F||-------------------------------------------------------------------|
C||-------------------------------------------------------------------|
G||-------------------------------------------------------------------|
C||--4-4-4-4-4-4-4-4-4-4-4-4-4-4-4-4-4-4-4-4-4-4-4-4-4-4-4-4-4-4-4-4--|


D||-------------------------------------------------------------------|
A||-------------------------------------------------------------------|
F||-------------------------------------------------------------------|
C||-------------------------------------------------------------------|
G||----------------------------------2-2-2-2-2-2-2-2-2-2-2-2-2-2-2-2--|
C||--0-0-0-0-0-0-0-0-0-0-0-0-0-0-0-0----------------------------------|


D||-------------------------------------------------------------------|
A||-------------------------------------------------------------------|
F||-------------------------------------------------------------------|
C||-------------------------------------------------------------------|
G||-------------------------------------------------------------------|
C||--4-4-4-4-4-4-4-4-4-4-4-4-4-4-4-4-4-4-4-4-4-4-4-4-4-4-4-4-4-4-4-4--|


D||---------------------------------------------------------------|
A||---------------------------------------------------------------|
F||---------------------------------------------------------------|
C||---------------------------------------------------------------|
G||----------------------------------2-2-2-2-2-2-2-2-2-2-2-2-2-2--|
C||--0-0-0-0-0-0-0-0-0-0-0-0-0-0-0-0------------------------------|



[Chorus]
Guitar 1:
D||-------------------------------------------------------|
A||-------------------------------------------------------|
F||--14---14---14-14---16---18-14---14---14-14---16---18--|
C||--x----x----x--x----x----x--x----x----x--x----x----x---|
G||--12---12---12-12---14---16-12---12---12-12---14---16--|
C||-------------------------------------------------------|


D||-------------------------------------------------------|
A||-------------------------------------------------------|
F||--16---16---16-16---16---16-16---16---16-13---13---13--|
C||--x----x----x--x----x----x--x----x----x--x----x----x---|
G||--14---14---14-14---14---14-14---14---14-11---11---11--|
C||-------------------------------------------------------|


D||-------------------------------------------------------|
A||-------------------------------------------------------|
F||--14---14---14-14---16---18-14---14---14-14---16---18--|
C||--x----x----x--x----x----x--x----x----x--x----x----x---|
G||--12---12---12-12---14---16-12---12---12-12---14---16--|
C||-------------------------------------------------------|


D||------------------------------------------|
A||------------------------------------------|
F||--16---16---16-16---16---16-16---16---16--|
C||--x----x----x--x----x----x--x----x----x---|
G||--14---14---14-14---14---14-14---14---14--|
C||------------------------------------------|


Guitar 2:
D||-----------------------------------------------------------------------------------|
A||-----------------------------------------------------------------------------------|
F||--7---7---7-7---7---7---------------------------------------------------6---6---6--|
C||--7---7---7-7---7---7-4---4---4-4---4---4-2---2---2-2---2---2-2---2---2-6---6---6--|
G||--5---5---5-5---5---5-4---4---4-4---4---4-2---2---2-2---2---2-2---2---2-4---4---4--|
C||----------------------4---4---4-4---4---4-2---2---2-2---2---2-2---2---2------------|


D||-------------------------------------------------------------------------|
A||-------------------------------------------------------------------------|
F||--7---7---7-7---7---7----------------------------------------------------|
C||--7---7---7-7---7---7-4---4---4-4---4---4-2---2---2-2---2---2-2---2---2--|
G||--5---5---5-5---5---5-4---4---4-4---4---4-2---2---2-2---2---2-2---2---2--|
C||----------------------4---4---4-4---4---4-2---2---2-2---2---2-2---2---2--|


Guitar 1/2:
D||-------------------|
A||-------------------|
F||-------------------|
C||--------------7-7--|
G||--------------7-7--|
C||--7-7-7-7-7-7-7-7--|
     . . . . . .



[Pre-Verse]
Guitar 1/2:
D||----------------------------|--------------------------------|
A||-------------------------2--|---------------------------7~---|
F||-------------------------2--|---------------------------9b~--|
C||--4---7\4---x-x-x-x-x-------|--0---0-0~--------3---3-3-------|
G||--4---7\4---x-x-x-x-x-'5----|--0---0-0~--------3---3-3-------|
C||--4---7\4---x-x-x-x-x-------|--0---0-0~--------3---3-3-------|


D||----------------------------|--------------------------------|
A||----------------------------|--------------------------------|
F||----------------------------|--------------------------------|
C||--4---7\4-------------------|--0---0-0~----------------------|
G||--4---7\4---'5-'5-'5-/9--9--|--0---0-0~----------------------|
C||--4---7\4-------------------|--0---0-0~-------3-3-3-7-7-5-5--|



[Verse]
Guitar 1/2:
D||-------------------------------------------------------------------|
A||-------------------------------------------------------------------|
F||-------------------------------------------------------------------|
C||-------------------------------------------------------------------|
G||-------------------------------------------------------------------|
C||--4-4-4-4-4-4-4-4-4-4-4-4-4-4-4-4-4-4-4-4-4-4-4-4-4-4-4-4-4-4-4-4--|


D||-------------------------------------------------------------------|
A||-------------------------------------------------------------------|
F||-------------------------------------------------------------------|
C||-------------------------------------------------------------------|
G||----------------------------------2-2-2-2-2-2-2-2-2-2-2-2-2-2-2-2--|
C||--0-0-0-0-0-0-0-0-0-0-0-0-0-0-0-0----------------------------------|


D||-------------------------------------------------------------------|
A||-------------------------------------------------------------------|
F||-------------------------------------------------------------------|
C||-------------------------------------------------------------------|
G||-------------------------------------------------------------------|
C||--4-4-4-4-4-4-4-4-4-4-4-4-4-4-4-4-4-4-4-4-4-4-4-4-4-4-4-4-4-4-4-4--|


D||---------------------------------------------------------------|
A||---------------------------------------------------------------|
F||---------------------------------------------------------------|
C||---------------------------------------------------------------|
G||----------------------------------2-2-2-2-2-2-2-2-2-2-2-2-2-2--|
C||--0-0-0-0-0-0-0-0-0-0-0-0-0-0-0-0------------------------------|



[Chorus]
Guitar 1:
D||-------------------------------------------------------|
A||-------------------------------------------------------|
F||--14---14---14-14---16---18-14---14---14-14---16---18--|
C||--x----x----x--x----x----x--x----x----x--x----x----x---|
G||--12---12---12-12---14---16-12---12---12-12---14---16--|
C||-------------------------------------------------------|


D||-------------------------------------------------------|
A||-------------------------------------------------------|
F||--16---16---16-16---16---16-16---16---16-13---13---13--|
C||--x----x----x--x----x----x--x----x----x--x----x----x---|
G||--14---14---14-14---14---14-14---14---14-11---11---11--|
C||-------------------------------------------------------|


D||-------------------------------------------------------|
A||-------------------------------------------------------|
F||--14---14---14-14---16---18-14---14---14-14---16---18--|
C||--x----x----x--x----x----x--x----x----x--x----x----x---|
G||--12---12---12-12---14---16-12---12---12-12---14---16--|
C||-------------------------------------------------------|


D||--------------------------------------------------------------------|
A||--------------------------------------------------------------------|
F||--16---16---16-16---16---16-16---16---16---13-13-13-13-13-13-14-14--|
C||--x----x----x--x----x----x--x----x----x----x--x--x--x--x--x--x--x---|
G||--14---14---14-14---14---14-14---14---14---11-11-11-11-11-11-12-12--|
C||--------------------------------------------------------------------|


Guitar 2:
D||-----------------------------------------------------------------------------------|
A||-----------------------------------------------------------------------------------|
F||--7---7---7-7---7---7---------------------------------------------------6---6---6--|
C||--7---7---7-7---7---7-4---4---4-4---4---4-2---2---2-2---2---2-2---2---2-6---6---6--|
G||--5---5---5-5---5---5-4---4---4-4---4---4-2---2---2-2---2---2-2---2---2-4---4---4--|
C||----------------------4---4---4-4---4---4-2---2---2-2---2---2-2---2---2------------|


D||-------------------------------------------------------------------------------------------|
A||-------------------------------------------------------------------------------------------|
F||--7---7---7-7---7---7-----------------------------------------------------6-6-6-6-6-6-6-6--|
C||--7---7---7-7---7---7-4---4---4-4---4---4-2---2---2-2---2---2-2---2---2---6-6-6-6-6-6-6-6--|
G||--5---5---5-5---5---5-4---4---4-4---4---4-2---2---2-2---2---2-2---2---2---4-4-4-4-4-4-4-4--|
C||----------------------4---4---4-4---4---4-2---2---2-2---2---2-2---2---2--------------------|



[Bridge]
Guitar 1:
D||---------------------------------------------------------|
A||---------------/17---17---19--------------/17---17---19--|
F||--11---11---11-/x----x----x--14---14---14-/x----x----x---|
C||--x----x----x--/14---14---16-x----x----x--/14---14---16--|
G||--9----9----9----------------12---12---12----------------|
C||---------------------------------------------------------|


D||-----------------------------17-----------17-------------|
A||---------------/17---17---19-x----17---19-x----17---19---|
F||--18---18---18-/x----x----x--14---x----x--14---x----x----|
C||--x----x----x--/14---14---16------14---16------14---16---|
G||--16---16---16-------------------------------------------|
C||---------------------------------------------------------|


D||---------------------------------------------------------|
A||---------------/17---17---19--------------/17---17---19--|
F||--11---11---11-/x----x----x--14---14---14-/x----x----x---|
C||--x----x----x--/14---14---16-x----x----x--/14---14---16--|
G||--9----9----9----------------12---12---12----------------|
C||---------------------------------------------------------|


D||-----------------------------17-----------17~-------|
A||---------------/17---17---19-x----17---19-x---------|
F||--18---18---18-/x----x----x--14---x----x--14~--br~--|
C||--x----x----x--/14---14---16------14---16-----------|
G||--16---16---16--------------------------------------|
C||----------------------------------------------------|


Guitar 2:
D||--------------------------------------------------------------------------|
A||--------------------------------------------------------------------------|
F||--------------------------------------------------------------------------|
C||--0---0---0--------4---4---4--------7---7---7--------2---2---2------------|
G||--0---0---0--------4---4---4--------7---7---7--------2---2---2-4---4---4--|
C||--0---0---0--------4---4---4--------7---7---7--------2---2---2------------|


D||--------------------------------------------------------------------------|
A||--------------------------------------------------------------------------|
F||--------------------------------------------------------------------------|
C||------0---0--------4---4---4--------7---7---7--------2---2---2-2----------|
G||--5\--0---0--------4---4---4--------7---7---7--------2---2---2-2----------|
C||------0---0--------4---4---4--------7---7---7--------2---2---2-2---3\-----|



[Main Riff]
Guitar 1 (Left):
D||------------------------------|--------------------------------|
A||---------------------------2--|---------------------------7~---|
F||---------------------------2--|---------------------------9b~--|
C||--4-4---7\4---x-x-x-x-x-------|--0---0-0~--------3---3-3-------|
G||--4-4---7\4---x-x-x-x-x-'5----|--0---0-0~--------3---3-3-------|
C||--4-4---7\4---x-x-x-x-x-------|--0---0-0~--------3---3-3-------|


Guitar 2 (Right):
D||------------------------------|--------------------------------|
A||---------------------------2--|---------------------------7~---|
F||---------------------------2--|---------------------------9b~--|
C||--4-4---7\4---x-x-x-x-x-x-----|--0---0-0~--------3---3-3-------|
G||--4-4---7\4---x-x-x-x-x-x-----|--0---0-0~--------3---3-3-------|
C||--4-4---7\4---x-x-x-x-x-x-----|--0---0-0~--------3---3-3-------|


Guitar 1/2:
D||------------------------------|--------------------------------|
A||---------------------------2--|---------------------------7~---|
F||---------------------------2--|---------------------------9b~--|
C||--4-4---7\4---x-x-x-x-x-------|--0---0-0---0-----3---3-3-------|
G||--4-4---7\4---x-x-x-x-x-'5----|--0---0-0---0-----3---3-3-------|
C||--4-4---7\4---x-x-x-x-x-------|--0---0-0---0-----3---3-3-------|


D||------------------------------|---------------|
A||---------------------------2--|---------------|
F||---------------------------2--|---------------|
C||--4-4---7\4---x-x-x-x-x-------|--0---0-0---0--|
G||--4-4---7\4---x-x-x-x-x-'5----|--0---0-0---0--|
C||--4-4---7\4---x-x-x-x-x-------|--0---0-0---0--|



[Breakdown]
Guitar 1/2:
D||-----------------------------|-------------------------------|
A||-----------------------------|---------------------------'5--|
F||--------------2-2-2-2-2-2-2--|-------------------------------|
C||--4-4---2-4---5b7-7-7-7-7-7--|--0---0-0~--------3---3-3------|
G||--4-4---2-4------------------|--0---0-0~--------3---3-3------|
C||--4-4---2-4------------------|--0---0-0~--------3---3-3------|


D||-----------------------------|-------------------------------|
A||--------------2-2-2-2-2-2~---|-------------------------------|
F||--------------4b6-6-6-6-6rp2-|-------------------------------|
C||--2-4---7-4------------------|--0---0-0~---------------------|
G||--2-4---7-4------------------|--0---0-0~--------8-8-8-8-8-8--|
C||--2-4---7-4------------------|--0---0-0~----3~/--------------|


D||-----------------------------|-------------------------------|
A||-----------------------------|---------------------------'5--|
F||--------------2-2-2-2-2-2-2--|-------------------------------|
C||--4-----2-4---5b7-7-7-7-7-7--|--0---0-0~--------3---3-3------|
G||--4-----2-4------------------|--0---0-0~--------3---3-3------|
C||--4-----2-4------------------|--0---0-0~--------3---3-3------|


D||-----------------------------|---------------------------------|
A||--------------2-2-2-2-2-2~---|---------------------------------|
F||--------------4b6-6-6-6-6rp2-|---------------------------------|
C||--2-4---7-4------------------|--0---0-0~--------3---3-3-x-x-x--|
G||--2-4---7-4------------------|--0---0-0~--------3---3-3-x-x-x--|
C||--2-4---7-4------------------|--0---0-0~--------3---3-3-x-x-x--|


D||-----------------------------|-------------------------------|
A||-----------------------------|---------------------------'5--|
F||--------------2-2-2-2-2-2-2--|-------------------------------|
C||--x-x-x-x-4---5b7-7-7-7-7-7--|--0---0-0~--------3---3-3------|
G||--x-x-x-x-4------------------|--0---0-0~--------3---3-3------|
C||--x-x-x-x-4------------------|--0---0-0~--------3---3-3------|


D||-----------------------------|-------------------------------|
A||--------------2-2-2-2-2-2~---|-------------------------------|
F||--------------4b6-6-6-6-6rp2-|-------------------------------|
C||--2-4---7-4------------------|--0---0-0~--------3---3-3---3--|
G||--2-4---7-4------------------|--0---0-0~--------3---3-3---3--|
C||--2-4---7-4------------------|--0---0-0~--------3---3-3---3--|



[Interlude]
Guitar 1:
D||-------------------|
A||-------------------|
F||--11~--------/14~--|
C||--x----------/x----|
G||--9~---------/12~--|
C||-------------------|


Guitar 2:
D||-------------------|
A||-------------------|
F||-------------------|
C||--4~---------/7~---|
G||--4~---------/7~---|
C||--4~---------/7~---|



[Chorus]
Guitar 1:
D||-------------------------------------------------------|
A||-------------------------------------------------------|
F||--14---14---14-14---16---18-14---14---14-14---16---18--|
C||--x----x----x--x----x----x--x----x----x--x----x----x---|
G||--12---12---12-12---14---16-12---12---12-12---14---16--|
C||-------------------------------------------------------|


D||-------------------------------------------------------|
A||-------------------------------------------------------|
F||--16---16---16-16---16---16-16---16---16-13---13---13--|
C||--x----x----x--x----x----x--x----x----x--x----x----x---|
G||--14---14---14-14---14---14-14---14---14-11---11---11--|
C||-------------------------------------------------------|


D||-------------------------------------------------------|
A||-------------------------------------------------------|
F||--14---14---14-14---16---18-14---14---14-14---16---18--|
C||--x----x----x--x----x----x--x----x----x--x----x----x---|
G||--12---12---12-12---14---16-12---12---12-12---14---16--|
C||-------------------------------------------------------|


D||--------------------------------------------------------------------|
A||--------------------------------------------------------------------|
F||--16---16---16-16---16---16-16---16---16---13-13-13-13-13-13-14-14--|
C||--x----x----x--x----x----x--x----x----x----x--x--x--x--x--x--x--x---|
G||--14---14---14-14---14---14-14---14---14---11-11-11-11-11-11-12-12--|
C||--------------------------------------------------------------------|


Guitar 2:
D||-----------------------------------------------------------------------------------|
A||-----------------------------------------------------------------------------------|
F||--7---7---7-7---7---7---------------------------------------------------6---6---6--|
C||--7---7---7-7---7---7-4---4---4-4---4---4-2---2---2-2---2---2-2---2---2-6---6---6--|
G||--5---5---5-5---5---5-4---4---4-4---4---4-2---2---2-2---2---2-2---2---2-4---4---4--|
C||----------------------4---4---4-4---4---4-2---2---2-2---2---2-2---2---2------------|


D||-------------------------------------------------------------------------------------------|
A||-------------------------------------------------------------------------------------------|
F||--7---7---7-7---7---7-----------------------------------------------------6-6-6-6-6-6-6-6--|
C||--7---7---7-7---7---7-4---4---4-4---4---4-2---2---2-2---2---2-2---2---2---6-6-6-6-6-6-6-6--|
G||--5---5---5-5---5---5-4---4---4-4---4---4-2---2---2-2---2---2-2---2---2---4-4-4-4-4-4-4-4--|
C||----------------------4---4---4-4---4---4-2---2---2-2---2---2-2---2---2--------------------|



[Outro]
Guitar 1:
D||---------------------------------------------------------|
A||---------------/17---17---19--------------/17---17---19--|
F||--11---11---11-/x----x----x--14---14---14-/x----x----x---|
C||--x----x----x--/14---14---16-x----x----x--/14---14---16--|
G||--9----9----9----------------12---12---12----------------|
C||---------------------------------------------------------|


D||-----------------------------17-----------17-------------|
A||---------------/17---17---19-x----17---19-x----17---19---|
F||--18---18---18-/x----x----x--14---x----x--14---x----x----|
C||--x----x----x--/14---14---16------14---16------14---16---|
G||--16---16---16-------------------------------------------|
C||---------------------------------------------------------|


D||---------------------------------------------------------|
A||---------------/17---17---19--------------/17---17---19--|
F||--11---11---11-/x----x----x--14---14---14-/x----x----x---|
C||--x----x----x--/14---14---16-x----x----x--/14---14---16--|
G||--9----9----9----------------12---12---12----------------|
C||---------------------------------------------------------|


D||-----------------------------17-----------17---17---17--|
A||---------------/17---17---19-x----17---19-x----x----x---|
F||--18---18---18-/x----x----x--14---x----x--14---14---14--|
C||--x----x----x--/14---14---16------14---16---------------|
G||--16---16---16------------------------------------------|
C||--------------------------------------------------------|


Guitar 2:
D||---------------------------------------------------------------------------|
A||---------------------------------------------------------------------------|
F||---------------------------------------------------------------------------|
C||--0---0---0--------4---4---4--------7---7---7--------2---2---2-------------|
G||--0---0---0--------4---4---4--------7---7---7--------2---2---2-4---4---4---|
C||--0---0---0--------4---4---4--------7---7---7--------2---2---2-------------|


D||---------------------------------------------------------------------------|
A||---------------------------------------------------------------------------|
F||---------------------------------------------------------------------------|
C||------0---0--------4---4---4--------7---7---7--------2---2---2-3---3---3\--|
G||--5\--0---0--------4---4---4--------7---7---7--------2---2---2-3---3---3\--|
C||------0---0--------4---4---4--------7---7---7--------2---2---2-3---3---3\--|





____________________________________________________________________________________________________

                                          T05.   AQUAMARINE
____________________________________________________________________________________________________





Tuning: Drop C (C G C F A D)


[Intro]
Guitar 1:
D||------------------------------------|---------------------------------------|
A||------------------10--------9-------|---------------------------------------|
F||--9----------9----9---------9----9--|--7--------------/9---7---6------------|
C||--7--------7------7---------7-------|--7-------------------------9---7---9--|
G||--0---------------9---------7-------|---------------------------------------|
C||--0---------------------------------|---------------------------------------|


D||------------------------------------|-------7-----------------------------------------|
A||------------------10--------9-------|------------10-----------------------------------|
F||--9----------9----9---------9----9--|--7---------------9--------/9---7---6------------|
C||--7--------7------7---------7-------|--7-----------------------------------9---7---9--|
G||--0---------------9---------7-------|-------------------------------------------------|
C||--0---------------------------------|-------------------------------------------------|


D||-----|
A||-----|
F||-----|
C||--7--|
G||-----|
C||-----|


Guitar 2:
D||------------------------------------|---------------------------------------|
A||------------------10--------9-------|------------------10--------9----------|
F||--9---------------9---------9-------|--9---------------9---------9----------|
C||--7---------------7---------7-------|--7---------------7---------7----------|
G||--0---------------9---------7-------|--0---------------9---------7----------|
C||--0---------------------------------|--0------------------------------------|


D||------------------------------------|---------------------------------------|
A||------------------10--------9-------|------------------10--------9----------|
F||--9---------------9---------9-------|--9---------------9---------9----------|
C||--7---------------7---------7-------|--7---------------7---------7----------|
G||--0---------------9---------7-------|--0---------------9---------7----------|
C||--0---------------------------------|--0------------------------------------|


D||------|
A||--10--|
F||--9---|
C||--7---|
G||--0---|
C||--0---|



Guitar 1/2:
D||--------------------------|
A||--------------------------|
F||--------------------------|
C||--4------2------7------0--|
G||--4------2------7------0--|
C||--4------2------7------0--|



[Verse]
Guitar 1:
D||-------------------------------------------------------------------------------------|
A||-------------------------------------------------------------------------------------|
F||--14---14-14---14-14-14-9---9-9---9-9-9-18---18-18---18-18-18-16---16-16---13-14-13--|
C||--x----x--x----x--x--x--x---x-x---x-x-x-x----x--x----x--x--x--x----x--x----x--x--x---|
G||--12---12-12---12-12-12-7---7-7---7-7-7-16---16-16---16-16-16-14---14-14---13-14-13--|
C||-------------------------------------------------------------------------------------|


D||----------------------------------------------------------------|
A||----------------------------------------------------------------|
F||--11---11-11---11-11-11-19---19-19-18---18-18-16---16-16--------|
C||--x----x--x----x--x--x--x----x--x--x----x--x--x----x--x--0-0-0--| [x2]
G||--9----9--9----9--9--9--17---17-17-16---16-16-14---14-14-0-0-0--|
C||---------------------------------------------------------0-0-0--|
                                                            . . .

Guitar 2:
D||--------------------------------------------------------------------|
A||--------------------------------------------------------------------|
F||------------------9---9-9---9-9-9-9---9-9----9-9-9-9---9-9----------|
C||--7---7-7---7-7-7-7---7-7---7-7-7-7---7-7----7-7-7-7---7-7---6-7-6--|
G||--4---4-4---4-4-4-5---5-5---5-5-5-5---5-5----5-5-5-5---5-5----------|
C||--4---4-4---4-4-4---------------------------------------------------|


D||-------------------------------------------------|
A||-------------------------------------------------|
F||------------------7---7-7-6---6-6-4---4-4--------|
C||--7---7-7---7-7-7-7---7-7-7---7-7-2---2-2-0-0-0--| [x2]
G||--4---4-4---4-4-4-5---5-5-5---5-5-2---2-2-0-0-0--|
C||--4---4-4---4-4-4-------------------------0-0-0--|
                                             . . .



[Pre-Chorus]
Guitar 1:
D||-----------------------------------|-----------------------------------|
A||-----------------------------------|-----------------------------------|
F||-----------------------------------|-----------------------------------|
C||--0---0-0-0-0-0-0-0-0-0-0-0-0-0-2--|--0---0-0-0-0-0-0-0-0-0-0-0-0-0-2--|
G||--0---0-0-0-0-0-0-0-0-0-0-0-0-0-2--|--0---0-0-0-0-0-0-0-0-0-0-0-0-0-2--|
C||--0---0-0-0-0-0-0-0-0-0-0-0-0-0-2--|--0---0-0-0-0-0-0-0-0-0-0-0-0-0-2--|
           . . . . . . . . . . . .             . . . . . . . . . . . .

D||-----------------------------------|-----------------------------------|
A||-----------------------------------|-----------------------------------|
F||-----------------------------------|-----------------------------------|
C||--0---0-0-0-0-0-0-0-0-0-0-0-0-0-2--|--0---0-0-0-0-0-0-0-0-0-0-0-0-0-0--|
G||--0---0-0-0-0-0-0-0-0-0-0-0-0-0-2--|--0---0-0-0-0-0-0-0-0-0-0-0-0-0-0--|
C||--0---0-0-0-0-0-0-0-0-0-0-0-0-0-2--|--0---0-0-0-0-0-0-0-0-0-0-0-0-0-0--|
           . . . . . . . . . . . .             . . . . . . . . . . . . .

Guitar 2:
D||-----------------------------------|-----------------------------------|
A||-----------------------------------|------------10----9----10----------|
F||-----------------------------------|------------9-----9----9-----------|
C||-----------------------------------|------------7-----7----7-----------|
G||-----------------------------------|-----------------------------------|
C||-----------------------------------|-----------------------------------|


D||-----------------------------------|-----------------------------------|
A||-----------------------------------|------------10----9----10----------|
F||-----------------------------------|------------9-----9----9-----------|
C||-----------------------------------|------------7-----7----7-----------|
G||-----------------------------------|-----------------------------------|
C||-----------------------------------|-----------------------------------|



[Chorus]
Guitar 1:
D||-------------------------------------------------------------------------------------------|
A||-------------------------------------------------------------------------------------------|
F||--11---11-11---11-11-11-11---11-11---13-13-13-14---14-14---14-14-14-19---19-19-18---18-18--|
C||--x----x--x----x--x--x--x----x--x----x--x--x--x----x--x----x--x--x--x----x--x--x----x--x---|
G||--9----9--9----9--9--9--9----9--9----11-11-11-12---12-12---12-12-12-17---12-17-16---16-16--|
C||-------------------------------------------------------------------------------------------|


D||-------------------------------------------------------------------------------------------|
A||-------------------------------------------------------------------------------------------|
F||--11---11-11---11-11-11-9----9--9----9--9--9--18---18-18---18-18-18-14---14-14-13---13-13--|
C||--x----x--x----x--x--x--x----x--x----x--x--x--x----x--x----x--x--x--x----x--x--x----x--x---|
G||--9----9--9----9--9--9--7----7--7----7--7--7--16---16-16---16-16-16-12---12-12-11---11-11--|
C||-------------------------------------------------------------------------------------------|


D||-------------------------------------------------------------------------------------------|
A||-------------------------------------------------------------------------------------------|
F||--18---18-18---18-18-18-18---18-18---16-16-16-19---19-19---19-19-19-18---18-18---18-18-18--|
C||--x----x--x----x--x--x--x----x--x----x--x--x--x----x--x----x--x--x--x----x--x----x--x--x---|
G||--16---16-16---16-16-16-16---16-16---14-14-14-17---17-17---17-17-17-16---16-16---16-16-16--|
C||-------------------------------------------------------------------------------------------|


D||----------------------------------------------------------------------------------------------|
A||----------------------------------------------------------------------------------------------|
F||--14---14-14---14-14-14-14---14-14---14-14-14-18---18-18---18-18-18-14---14-14-12---12-12-12--|
C||--x----x--x----x--x--x--x----x--x----x--x--x--x----x--x----x--x--x--x----x--x--x----x--x--x---|
G||--12---12-12---12-12-12-12---12-12---12-12-12-16---16-16---16-16-16-12---12-12-11---11-11-11--|
C||----------------------------------------------------------------------------------------------|


Guitar 2:
D||-------------------------------------------------------------------------------------------|
A||-------------------------------------------------------------------------------------------|
F||--11---11-11---11-11-11-11---11-11---13-13-13-14---14-14---14-14-14-14---14-14---14-14-14--|
C||--11---11-11---11-11-11-11---11-11---14-14-14-14---14-14---14-14-14-14---14-14---14-14-14--|
G||--9----9--9----9--9--9--9----9--9----11-11-11-12---12-12---12-12-12-12---12-12---12-12-12--|
C||-------------------------------------------------------------------------------------------|


D||-------------------------------------------------------------------------------------------|
A||-------------------------------------------------------------------------------------------|
F||----------------------------------------------10---10-10---10-10-10-10---10-10-------------|
C||--16---16-16---16-16-16-16---16-16---16-16-16-11---11-11---11-11-11-11---11-11-------------|
G||--12---12-12---12-12-12-12---12-12---12-12-12-8----8--8----8--8--8--8----8--8---\\pick\\---|
C||--12---12-12---12-12-12-12---12-12---12-12-12------------------------------------\\slide\\-|


D||-------------------------------------------------------------------------------------------|
A||-------------------------------------------------------------------------------------------|
F||--11---11-11---11-11-11-11---11-11---13-13-13-14---14-14---14-14-14-14---14-14---14-14-14--|
C||--11---11-11---11-11-11-11---11-11---14-14-14-14---14-14---14-14-14-14---14-14---14-14-14--|
G||--9----9--9----9--9--9--9----9--9----11-11-11-12---12-12---12-12-12-12---12-12---12-12-12--|
C||-------------------------------------------------------------------------------------------|


D||----------------------------------------------------------------------------------------------|
A||----------------------------------------------------------------------------------------------|
F||--13---13-13---13-13-13-13---13-13---13-13-13-10---10-10---10-10-10-10---10-10---10-10-10-10--|
C||--14---14-14---14-14-14-14---14-14---14-14-14-11---11-11---11-11-11-11---11-11---11-11-11-11--|
G||--12---12-12---12-12-12-12---12-12---12-12-12-8----8--8----8--8--8--8----8--8----8--8--8--8---|
C||----------------------------------------------------------------------------------------------|


Guitar 1/2:
D||--------------------------|
A||--------------------------|
F||--------------------------|
C||--4------2------7------0--|
G||--4------2------7------0--|
C||--4------2------7------0--|



[Verse]
Guitar 1:
D||-------------------------------------------------------------------------------------|
A||-------------------------------------------------------------------------------------|
F||--14---14-14---14-14-14-9---9-9---9-9-9-18---18-18---18-18-18-16---16-16---13-14-13--|
C||--x----x--x----x--x--x--x---x-x---x-x-x-x----x--x----x--x--x--x----x--x----x--x--x---|
G||--12---12-12---12-12-12-7---7-7---7-7-7-16---16-16---16-16-16-14---14-14---13-14-13--|
C||-------------------------------------------------------------------------------------|


D||----------------------------------------------------------------|
A||----------------------------------------------------------------|
F||--11---11-11---11-11-11-19---19-19-18---18-18-16---16-16--------|
C||--x----x--x----x--x--x--x----x--x--x----x--x--x----x--x--0-0-0--| [x2]
G||--9----9--9----9--9--9--17---17-17-16---16-16-14---14-14-0-0-0--|
C||---------------------------------------------------------0-0-0--|
                                                            . . .

Guitar 2:
D||--------------------------------------------------------------------|
A||--------------------------------------------------------------------|
F||------------------9---9-9---9-9-9-9---9-9----9-9-9-9---9-9----------|
C||--7---7-7---7-7-7-7---7-7---7-7-7-7---7-7----7-7-7-7---7-7---6-7-6--|
G||--4---4-4---4-4-4-5---5-5---5-5-5-5---5-5----5-5-5-5---5-5----------|
C||--4---4-4---4-4-4---------------------------------------------------|


D||-------------------------------------------------|
A||-------------------------------------------------|
F||------------------7---7-7-6---6-6-4---4-4--------|
C||--7---7-7---7-7-7-7---7-7-7---7-7-2---2-2-0-0-0--| [x2]
G||--4---4-4---4-4-4-5---5-5-5---5-5-2---2-2-0-0-0--|
C||--4---4-4---4-4-4-------------------------0-0-0--|
                                             . . .



[Pre-Chorus]
Guitar 1:
D||-----------------------------------|-----------------------------------|
A||-----------------------------------|-----------------------------------|
F||-----------------------------------|-----------------------------------|
C||--0---0-0-0-0-0-0-0-0-0-0-0-0-0-2--|--0---0-0-0-0-0-0-0-0-0-0-0-0-0-2--|
G||--0---0-0-0-0-0-0-0-0-0-0-0-0-0-2--|--0---0-0-0-0-0-0-0-0-0-0-0-0-0-2--|
C||--0---0-0-0-0-0-0-0-0-0-0-0-0-0-2--|--0---0-0-0-0-0-0-0-0-0-0-0-0-0-2--|
           . . . . . . . . . . . .             . . . . . . . . . . . .

D||-----------------------------------|-----------------------------------|
A||-----------------------------------|-----------------------------------|
F||-----------------------------------|-----------------------------------|
C||--0---0-0-0-0-0-0-0-0-0-0-0-0-0-2--|--0---0-0-0-0-0-0-0-0-0-0-0-0-0-0--|
G||--0---0-0-0-0-0-0-0-0-0-0-0-0-0-2--|--0---0-0-0-0-0-0-0-0-0-0-0-0-0-0--|
C||--0---0-0-0-0-0-0-0-0-0-0-0-0-0-2--|--0---0-0-0-0-0-0-0-0-0-0-0-0-0-0--|
           . . . . . . . . . . . .             . . . . . . . . . . . . .

Guitar 2:
D||-----------------------------------|-----------------------------------|
A||-----------------------------------|------------10----9----10----------|
F||-----------------------------------|------------9-----9----9-----------|
C||-----------------------------------|------------7-----7----7-----------|
G||-----------------------------------|-----------------------------------|
C||-----------------------------------|-----------------------------------|


D||-----------------------------------|-----------------------------------|
A||-----------------------------------|------------10----9----10----------|
F||-----------------------------------|------------9-----9----9-----------|
C||-----------------------------------|------------7-----7----7-----------|
G||-----------------------------------|-----------------------------------|
C||-----------------------------------|-----------------------------------|



[Chorus]
Guitar 1:
D||-------------------------------------------------------------------------------------------|
A||-------------------------------------------------------------------------------------------|
F||--11---11-11---11-11-11-11---11-11---13-13-13-14---14-14---14-14-14-19---19-19-18---18-18--|
C||--x----x--x----x--x--x--x----x--x----x--x--x--x----x--x----x--x--x--x----x--x--x----x--x---|
G||--9----9--9----9--9--9--9----9--9----11-11-11-12---12-12---12-12-12-17---12-17-16---16-16--|
C||-------------------------------------------------------------------------------------------|


D||-------------------------------------------------------------------------------------------|
A||-------------------------------------------------------------------------------------------|
F||--11---11-11---11-11-11-9----9--9----9--9--9--18---18-18---18-18-18-14---14-14-13---13-13--|
C||--x----x--x----x--x--x--x----x--x----x--x--x--x----x--x----x--x--x--x----x--x--x----x--x---|
G||--9----9--9----9--9--9--7----7--7----7--7--7--16---16-16---16-16-16-12---12-12-11---11-11--|
C||-------------------------------------------------------------------------------------------|


D||-------------------------------------------------------------------------------------------|
A||-------------------------------------------------------------------------------------------|
F||--18---18-18---18-18-18-18---18-18---16-16-16-19---19-19---19-19-19-18---18-18---18-18-18--|
C||--x----x--x----x--x--x--x----x--x----x--x--x--x----x--x----x--x--x--x----x--x----x--x--x---|
G||--16---16-16---16-16-16-16---16-16---14-14-14-17---17-17---17-17-17-16---16-16---16-16-16--|
C||-------------------------------------------------------------------------------------------|


D||----------------------------------------------------------------------------------------------|
A||----------------------------------------------------------------------------------------------|
F||--14---14-14---14-14-14-14---14-14---14-14-14-18---18-18---18-18-18-14---14-14-12---12-12-12--|
C||--x----x--x----x--x--x--x----x--x----x--x--x--x----x--x----x--x--x--x----x--x--x----x--x--x---|
G||--12---12-12---12-12-12-12---12-12---12-12-12-16---16-16---16-16-16-12---12-12-11---11-11-11--|
C||----------------------------------------------------------------------------------------------|


Guitar 2:
D||-------------------------------------------------------------------------------------------|
A||-------------------------------------------------------------------------------------------|
F||--11---11-11---11-11-11-11---11-11---13-13-13-14---14-14---14-14-14-14---14-14---14-14-14--|
C||--11---11-11---11-11-11-11---11-11---14-14-14-14---14-14---14-14-14-14---14-14---14-14-14--|
G||--9----9--9----9--9--9--9----9--9----11-11-11-12---12-12---12-12-12-12---12-12---12-12-12--|
C||-------------------------------------------------------------------------------------------|


D||-------------------------------------------------------------------------------------------|
A||-------------------------------------------------------------------------------------------|
F||----------------------------------------------10---10-10---10-10-10-10---10-10-------------|
C||--16---16-16---16-16-16-16---16-16---16-16-16-11---11-11---11-11-11-11---11-11-------------|
G||--12---12-12---12-12-12-12---12-12---12-12-12-8----8--8----8--8--8--8----8--8---\\pick\\---|
C||--12---12-12---12-12-12-12---12-12---12-12-12------------------------------------\\slide\\-|


D||-------------------------------------------------------------------------------------------|
A||-------------------------------------------------------------------------------------------|
F||--11---11-11---11-11-11-11---11-11---13-13-13-14---14-14---14-14-14-14---14-14---14-14-14--|
C||--11---11-11---11-11-11-11---11-11---14-14-14-14---14-14---14-14-14-14---14-14---14-14-14--|
G||--9----9--9----9--9--9--9----9--9----11-11-11-12---12-12---12-12-12-12---12-12---12-12-12--|
C||-------------------------------------------------------------------------------------------|


D||----------------------------------------------------------------------------------------------|
A||----------------------------------------------------------------------------------------------|
F||--13---13-13---13-13-13-13---13-13---13-13-13-10---10-10---10-10-10-10---10-10---10-10-10-10--|
C||--14---14-14---14-14-14-14---14-14---14-14-14-11---11-11---11-11-11-11---11-11---11-11-11-11--|
G||--12---12-12---12-12-12-12---12-12---12-12-12-8----8--8----8--8--8--8----8--8----8--8--8--8---|
C||----------------------------------------------------------------------------------------------|


Guitar 1/2:
D||--------------------------|
A||--------------------------|
F||--------------------------|
C||--4------2------7------0--|
G||--4------2------7------0--|
C||--4------2------7------0--|



[Bridge]
Guitar 1/2:
D||---------------------------------------------------------------|
A||---------------------------------------------------------------|
F||---------------------------------------------------------------|
C||--2-4---4-4-4-4-4-4-4-4-4-4-4-4-2-4---4-4-4-4-4-4-4-4-4-4-4-4--|
G||--2-4---4-4-4-4-4-4-4-4-4-4-4-4-2-4---4-4-4-4-4-4-4-4-4-4-4-4--|
C||--2-4---4-4-4-4-4-4-4-4-4-4-4-4-2-4---4-4-4-4-4-4-4-4-4-4-4-4--|
           . . . . . . . . . . . .       . . . . . . . . . . . .


D||---------------------------------------------------------------|
A||---------------------------------------------------------------|
F||---------------------------------------------------------------|
C||--2-0---0-0-0-0-0-0-0-0-0-0-0-0-2-0---0-0-0-0-0-0-0-0-0-0-0-0--|
G||--2-0---0-0-0-0-0-0-0-0-0-0-0-0-2-0---0-0-0-0-0-0-0-0-0-0-0-0--|
C||--2-0---0-0-0-0-0-0-0-0-0-0-0-0-2-0---0-0-0-0-0-0-0-0-0-0-0-0--|
           . . . . . . . . . . . .       . . . . . . . . . . . .


Guitar 1:
D||---------------------------------------------------------------|
A||---------------------------------------------------------------|
F||---------------------------------------------------------------|
C||--2-4---4-4-4-4-4-4-4-4-4-4-4-4-2-4---4-4-4-4-4-4-4-4-4-4-4-4--|
G||--2-4---4-4-4-4-4-4-4-4-4-4-4-4-2-4---4-4-4-4-4-4-4-4-4-4-4-4--|
C||--2-4---4-4-4-4-4-4-4-4-4-4-4-4-2-4---4-4-4-4-4-4-4-4-4-4-4-4--|
           . . . . . . . . . . . .       . . . . . . . . . . . .


D||---------------------------------------------------------------|
A||---------------------------------------------------------------|
F||---------------------------------------------------------------|
C||--2-0---0-0-0-0-0-0-0-0-0-0-0-0-2-0---0-0-0-0-0-0-000000000----|
G||--2-0---0-0-0-0-0-0-0-0-0-0-0-0-2-0---0-0-0-0-0-0-000000000----|
C||--2-0---0-0-0-0-0-0-0-0-0-0-0-0-2-0---0-0-0-0-0-0-000000000----|
           . . . . . . . . . . . .       . . . . . . .........


Guitar 2:
D||--------------------------------------|-----------------------------------------------|
A||--7/10----10----10----9----9----9-10--|--7/10-------10----10----10----9----9----9-10--|
F||-------11----11----11---11---11-------|----------11----11----11----11---11---11-------|
C||--------------------------------------|-----------------------------------------------|
G||--------------------------------------|-----------------------------------------------|
C||--------------------------------------|-----------------------------------------------|


D||---------10----10----10----9----9----9-10----12---12-12-12-12-12-12-12-121212121212121212\--|
A||--7/10------10----10----10---10---10------10-10---10-10-10-10-10-10-10-101010101010101010\--|
F||--------------------------------------------------------------------------------------------|
C||--------------------------------------------------------------------------------------------|
G||--------------------------------------------------------------------------------------------|
C||--------------------------------------------------------------------------------------------|



[Breakdown]
Guitar 1/2:
D||---------------------------------------------------------------|
A||---------------------------------------------------------------|
F||---------------------------------------------------------------|
C||--2-4\--------------------------2-4\---------------------------|
G||--2-4\--------------------------2-4\---------------------------|
C||--2-4\--------------------------2-4\---------------------------|


D||---------------------------------------------------------------|
A||---------------------------------------------------------------|
F||---------------------------------------------------------------|
C||--2-0---------------------------2-0----------------------------|
G||--2-0---------------------------2-0----------------------------|
C||--2-0---------------------------2-0----------------------------|


D||---------------|
A||------------'--|
F||------------'--|
C||--2222-2-2--'--|
G||--2222-2-2-----|
C||--2222-2-2-----|


Guitar 1:
D||---------------------------------------------------------------|
A||---------------------------------------------------------------|
F||---------------------------------------------------------------|
C||--2-4\--------------------------2-4\---------------------------|
G||--2-4\--------------------------2-4\---------------------------|
C||--2-4\--------------------------2-4\---------------------------|


D||-------------------------------------------------------------------|
A||-------------------------------------------------------------------|
F||-------------------------------------------------------------------|
C||--2-0---------------------------2-0---0-0-0-0-0-0-0-0-0-0-0-0-0-0--|
G||--2-0---------------------------2-0---0-0-0-0-0-0-0-0-0-0-0-0-0-0--|
C||--2-0---------------------------2-0---0-0-0-0-0-0-0-0-0-0-0-0-0-0--|
                                         . . . . . . . . . . . 


Guitar 2:
D||---------------------------------------------------------------------|
A||---------------------------------------------------------------------|
F||---------------------------------------------------------------------|
C||--7-7-7-7-7-7-7-6-6-6-6-6-7-7-7--7-7-7-7-7-7-7/12-12-12-12-11-12-11--|
G||---------------------------------------------------------------------|
C||---------------------------------------------------------------------|


D||---------------------------------------------------------------------------------|
A||---------------------------------------------------------------------------------|
F||---------------------------------------------------------------------------------|
C||--7-----7-7-7-7-7-6-6-6-6-7-7-7-7-7-7-7-7/9-9-9-9-9/11-11-11-11-11/12-12-12-12~--|
G||---------------------------------------------------------------------------------|
C||---------------------------------------------------------------------------------|



[Interlude]
Guitar 1:
D||------------------------------------|-------7-----------------------------------------|
A||------------------10--------9-------|------------10-----------------------------------|
F||--9----------9----9---------9----9--|--7---------------9--------/9---7---6------------|
C||--7--------7------7---------7-------|--7-----------------------------------9---7---9--|
G||--0---------------9---------7-------|-------------------------------------------------|
C||--0---------------------------------|-------------------------------------------------|


D||-----|
A||-----|
F||-----|
C||--7--|
G||-----|
C||-----|


Guitar 2:
D||------------------------------------|---------------------------------------|
A||------------------10--------9-------|------------------10--------9----------|
F||--9---------------9---------9-------|--9---------------9---------9----------|
C||--7---------------7---------7-------|--7---------------7---------7----------|
G||--0---------------9---------7-------|--0---------------9---------7----------|
C||--0---------------------------------|--0------------------------------------|


D||------|
A||--10--|
F||--9---|
C||--7---|
G||--0---|
C||--0---|



[Chorus / Outro]
Guitar 1:
D||-------------------------------------------------------------------------------------------|
A||-------------------------------------------------------------------------------------------|
F||--11---11-11---11-11-11-11---11-11---13-13-13-14---14-14---14-14-14-19---19-19-18---18-18--|
C||--x----x--x----x--x--x--x----x--x----x--x--x--x----x--x----x--x--x--x----x--x--x----x--x---|
G||--9----9--9----9--9--9--9----9--9----11-11-11-12---12-12---12-12-12-17---12-17-16---16-16--|
C||-------------------------------------------------------------------------------------------|


D||-------------------------------------------------------------------------------------------|
A||-------------------------------------------------------------------------------------------|
F||--11---11-11---11-11-11-9----9--9----9--9--9--18---18-18---18-18-18-14---14-14-13---13-13--|
C||--x----x--x----x--x--x--x----x--x----x--x--x--x----x--x----x--x--x--x----x--x--x----x--x---|
G||--9----9--9----9--9--9--7----7--7----7--7--7--16---16-16---16-16-16-12---12-12-11---11-11--|
C||-------------------------------------------------------------------------------------------|


D||-------------------------------------------------------------------------------------------|
A||-------------------------------------------------------------------------------------------|
F||--18---18-18---18-18-18-18---18-18---16-16-16-19---19-19---19-19-19-18---18-18---18-18-18--|
C||--x----x--x----x--x--x--x----x--x----x--x--x--x----x--x----x--x--x--x----x--x----x--x--x---|
G||--16---16-16---16-16-16-16---16-16---14-14-14-17---17-17---17-17-17-16---16-16---16-16-16--|
C||-------------------------------------------------------------------------------------------|


D||----------------------------------------------------------------------------------------------|
A||----------------------------------------------------------------------------------------------|
F||--14---14-14---14-14-14-14---14-14---14-14-14-18---18-18---18-18-18-14---14-14-12---12-12-12--|
C||--x----x--x----x--x--x--x----x--x----x--x--x--x----x--x----x--x--x--x----x--x--x----x--x--x---|
G||--12---12-12---12-12-12-12---12-12---12-12-12-16---16-16---16-16-16-12---12-12-11---11-11-11--|
C||----------------------------------------------------------------------------------------------|


Guitar 2:
D||-------------------------------------------------------------------------------------------|
A||-------------------------------------------------------------------------------------------|
F||--11---11-11---11-11-11-11---11-11---13-13-13-14---14-14---14-14-14-14---14-14---14-14-14--|
C||--11---11-11---11-11-11-11---11-11---14-14-14-14---14-14---14-14-14-14---14-14---14-14-14--|
G||--9----9--9----9--9--9--9----9--9----11-11-11-12---12-12---12-12-12-12---12-12---12-12-12--|
C||-------------------------------------------------------------------------------------------|


D||-------------------------------------------------------------------------------------------|
A||-------------------------------------------------------------------------------------------|
F||----------------------------------------------10---10-10---10-10-10-10---10-10-------------|
C||--16---16-16---16-16-16-16---16-16---16-16-16-11---11-11---11-11-11-11---11-11-------------|
G||--12---12-12---12-12-12-12---12-12---12-12-12-8----8--8----8--8--8--8----8--8---\\pick\\---|
C||--12---12-12---12-12-12-12---12-12---12-12-12------------------------------------\\slide\\-|


D||-------------------------------------------------------------------------------------------|
A||-------------------------------------------------------------------------------------------|
F||--11---11-11---11-11-11-11---11-11---13-13-13-14---14-14---14-14-14-14---14-14---14-14-14--|
C||--11---11-11---11-11-11-11---11-11---14-14-14-14---14-14---14-14-14-14---14-14---14-14-14--|
G||--9----9--9----9--9--9--9----9--9----11-11-11-12---12-12---12-12-12-12---12-12---12-12-12--|
C||-------------------------------------------------------------------------------------------|


D||----------------------------------------------------------------------------------------------|
A||----------------------------------------------------------------------------------------------|
F||--13---13-13---13-13-13-13---13-13---13-13-13-10---10-10---10-10-10-10---10-10---10-10-10-10--|
C||--14---14-14---14-14-14-14---14-14---14-14-14-11---11-11---11-11-11-11---11-11---11-11-11-11--|
G||--12---12-12---12-12-12-12---12-12---12-12-12-8----8--8----8--8--8--8----8--8----8--8--8--8---|
C||----------------------------------------------------------------------------------------------|


Guitar 1/2:
D||--------------------------|
A||--------------------------|
F||--------------------------|
C||--4------2------7------0--|
G||--4------2------7------0--|
C||--4------2------7------0--|






____________________________________________________________________________________________________

                                          T06.   MIRROR BOX
____________________________________________________________________________________________________





Tuning: Drop C (C G C F A D)


Guitar 1 - Left Speaker
Guitar 2 - Right Speaker


[Intro]
Guitar 1:
D||------------------------------------------------------------------|
A||------------------------------------------------------------------|
F||----------9----9-------------9---9-------------9---9--------------|
C||--2-2-2-2-x----x---2-2-2-2-2-x---x---2-2-2-2-2-x---x---2-2-2-2-2--|
G||--2-2-2-2-7----7---2-2-2-2-2-7---7---2-2-2-2-2-7---7---2-2-2-2-2--|
C||--2-2-2-2----------2-2-2-2-2---------2-2-2-2-2---------2-2-2-2-2--|



[Pre-Verse]
Guitar 1/2:
D||------------------------------------------------------------------------|
A||------------------------------------------------------------------------|
F||----------9----9-------------9---9-------------9---9-------------9---9--|
C||--2-2-2-2-x----x---2-2-2-2-2-x---x---0-2-2-2-2-x---x---2-2-2-2-2-x---x--|
G||--2-2-2-2-7----7---2-2-2-2-2-7---7---0-2-2-2-2-7---7---2-2-2-2-2-7---7--|
C||--2-2-2-2----------2-2-2-2-2---------0-2-2-2-2---------2-2-2-2-2--------|


D||-----------------------------------------------------------------|
A||-----------------------------------------------------------------|
F||--5-5-5-5-7---7---5-5-5-5-5-7---7---7---------5---5---5----------|
C||--5-5-5-5-x---x---5-5-5-5-5-x---x---x-7-7-7-7-x---x---x-0-0-0-0--|
G||--3-3-3-3-5---5---3-3-3-3-3-5---5---5-7-7-7-7-3---3---3-0-0-0-0--|
C||--------------------------------------7-7-7-7-----------0-0-0-0--|


Guitar 1:
D||----------|
A||----------|
F||--12--11--|
C||--x---x---|
G||--10--9---|
C||----------|


Guitar 2:
D||----------|
A||----------|
F||--16--14--|
C||--x---x---|
G||--14--12--|
C||----------|



[Verse]
Guitar 1:
D||-------------------------------------------------------|
A||-------------------------------------------------------|
F||------------0-------------------------0----------------|
C||-----2-------------2-----------2-------------2---------|
G||-------------------------------------------------------|
C||--2-------------------------2--------------------------|


D||-------------------------------------------------------|
A||------------0-------------------------0----------------|
F||----------------------------------------------------2--|
C||-----5-------------5-----------5-------------5---------| [x2]
G||--3-------------------------3--------------------------|
C||-------------------------------------------------------|


Guitar 2:
D||---------------------------------------------------|
A||---------------------------------------------------|
F||-------------------7-------------------------7-----|
C||-------9-------------------------9-----------------|
G||--10-------10---------------10-------10------------|
C||---------------------------------------------------|


D||---------------------------------------------------|
A||---------------------------------------------------|
F||-----------------4-----------------------4------4--|
C||------5-----------------------5--------------------| [x2]
G||--7-------7---------------7-------7----------------|
C||---------------------------------------------------|



[Pre-Chorus]
Guitar 1:
D||-----------------------------|-------0-----------------|
A||-----------------------------|------------3------------|
F||-----------------------------|-----------------5----4--|
C||-----------------------------|-------------------------|
G||-----------------------------|--3----------------------|
C||-----------------------------|-------------------------|


Guitar 2:
D||-----------------------------|-------------------------|
A||-----------------------------|-------------------------|
F||------------5------2---------|-------------------------|
C||-----2-----------------------|-------------------------|
G||--0-----------------------2--|--3----------------------|
C||-----------------------------|-------------------------|



[Chorus]
Guitar 1/2:
D||-------------------------------------------------------------------------|
A||-------------------------------------------------------------------------|
F||----------9----9-------------9---9-------------9---9-------------9---9---|
C||--2-2-2-2-x----x---2-2-2-2-2-x---x---0-2-2-2-2-x---x---2-2-2-2-2-x---x---|
G||--2-2-2-2-7----7---2-2-2-2-2-7---7---0-2-2-2-2-7---7---2-2-2-2-2-7---7---|
C||--2-2-2-2----------2-2-2-2-2---------0-2-2-2-2---------2-2-2-2-2---------|


D||-------------------------------------------------------------------------|
A||-------------------------------------------------------------------------|
F||--5-5-5-5-7---7---5-5-5-5-5-7---7---7---------5---5---5---------4-4-4-4--|
C||--5-5-5-5-x---x---5-5-5-5-5-x---x---x-7-7-7-7-x---x---x-0-0-0-0-x-x-x-x--|
G||--3-3-3-3-5---5---3-3-3-3-3-5---5---5-7-7-7-7-3---3---3-0-0-0-0-2-2-2-2--|
C||--------------------------------------7-7-7-7-----------0-0-0-0----------|


Guitar 1:
D||------------------------------------------------------------------------|
A||------------------------------------------------------------------------|
F||----------9----9-------------9---9-------------9---9-------------9---9--|
C||--2-2-2-2-x----x---2-2-2-2-2-x---x---0-2-2-2-2-x---x---2-2-2-2-2-x---x--|
G||--2-2-2-2-7----7---2-2-2-2-2-7---7---0-2-2-2-2-7---7---2-2-2-2-2-7---7--|
C||--2-2-2-2----------2-2-2-2-2---------0-2-2-2-2---------2-2-2-2-2--------|


D||------------------------------------------------------------------------|
A||------------------------------------------------------------------------|
F||--5-5-5-5-7---7---5-5-5-5-5-7---7---7---------5---5---5---------12--11--|
C||--5-5-5-5-x---x---5-5-5-5-5-x---x---x-7-7-7-7-x---x---x-0-0-0-0-x---x---|
G||--3-3-3-3-5---5---3-3-3-3-3-5---5---5-7-7-7-7-3---3---3-0-0-0-0-10--9---|
C||--------------------------------------7-7-7-7-----------0-0-0-0---------|


Guitar 2:
D||--------------------------------------------------------------------------|
A||--------------------------------------------------------------------------|
F||----------12---12------------12--12------------12--12------------12--12---|
C||--2-2-2-2-x----x---2-2-2-2-2-x---x---0-2-2-2-2-x---x---2-2-2-2-2-x---x----|
G||--2-2-2-2-10---10--2-2-2-2-2-10--10--0-2-2-2-2-10--10--2-2-2-2-2-10--10---|
C||--2-2-2-2----------2-2-2-2-2---------0-2-2-2-2---------2-2-2-2-2----------|


D||--------------------------------------------------------------------------|
A||--------------------------------------------------------------------------|
F||--5-5-5-5-16--16--5-5-5-5-5-16--16--16---------14--14--14---------16--14--|
C||--5-5-5-5-x---x---5-5-5-5-5-x---x---x--7-7-7-7-x---x---x--0-0-0-0-x---x---|
G||--3-3-3-3-14--14--3-3-3-3-3-14--14--14-7-7-7-7-12--12--12-0-0-0-0-14--12--|
C||---------------------------------------7-7-7-7------------0-0-0-0---------|



[Verse]
Guitar 1:
D||-------------------------------------------------------|
A||-------------------------------------------------------|
F||------------0-------------------------0----------------|
C||-----2-------------2-----------2-------------2---------|
G||-------------------------------------------------------|
C||--2-------------------------2--------------------------|


D||-------------------------------------------------------|
A||------------0-------------------------0----------------|
F||----------------------------------------------------2--|
C||-----5-------------5-----------5-------------5---------| [x2]
G||--3-------------------------3--------------------------|
C||-------------------------------------------------------|


Guitar 1 (Dub):
D||-------------------------------------------------------------------|
A||-------------------------------------------------------------------|
F||-------------------------------------------------------------------|
C||-------------------------------------------------------------------| x2
G||--7-7-7-7-7-7-7-7-7-7-7-7-7-7-7-7-7-7-7-7-7-7-7-7-7-7-7-7-7-7-7-7--|
C||-------------------------------------------------------------------|
     . . . . . . . . . . . . . . . . . . . . . . . . . . . . . . . .


D||-------------------------------------------------------------------|
A||-------------------------------------------------------------------|
F||-------------------------------------------------------------------|
C||--5-5-5-5-5-5-5-5-5-5-5-5-5-5-5-5-5-5-5-5-5-5-5-5-5-5-5-5-5-5-5-5--| x2
G||-------------------------------------------------------------------|
C||-------------------------------------------------------------------|
     . . . . . . . . . . . . . . . . . . . . . . . . . . . . . . . .


Guitar 2:
D||---------------------------------------------------|
A||---------------------------------------------------|
F||-------------------7-------------------------7-----|
C||-------9-------------------------9-----------------|
G||--10-------10---------------10-------10------------|
C||---------------------------------------------------|


D||---------------------------------------------------|
A||---------------------------------------------------|
F||-----------------4-----------------------4------4--|
C||------5-----------------------5--------------------| [x2]
G||--7-------7---------------7-------7----------------|
C||---------------------------------------------------|



[Pre-Chorus]
Guitar 1:
D||---------------------------------------------------------------|
A||---------------------------------------------------------------|
F||--------------------------------------------------4-4-4-4-4-4--|
C||----------------------------------5-5-5-5-5-5-5-5-5-5-5-5-5-5--|
G||--0-0-0-0-0-0-0-0-0-0-0-0-0-0-0-0-3-3-3-3-3-3-3-3-3-3-3-3-3-3--|
C||---------------------------------------------------------------|
     . . . . . . . . . . . . . . . . . . . . . . . .


Guitar 2:
D||---------------------------------------------------------------|
A||---------------------------------------------------------------|
F||----------------------------------------------------------4-4--|
C||----------------------------------------------------------5-5--|
G||----------------------------------------------------------3-3--|
C||---------------------------------------------------------------|



[Chorus]
Guitar 1/2:
D||-------------------------------------------------------------------------|
A||-------------------------------------------------------------------------|
F||----------9----9-------------9---9-------------9---9-------------9---9---|
C||--2-2-2-2-x----x---2-2-2-2-2-x---x---0-2-2-2-2-x---x---2-2-2-2-2-x---x---|
G||--2-2-2-2-7----7---2-2-2-2-2-7---7---0-2-2-2-2-7---7---2-2-2-2-2-7---7---|
C||--2-2-2-2----------2-2-2-2-2---------0-2-2-2-2---------2-2-2-2-2---------|


D||-------------------------------------------------------------------------|
A||-------------------------------------------------------------------------|
F||--5-5-5-5-7---7---5-5-5-5-5-7---7---7---------5---5---5---------4-4-4-4--|
C||--5-5-5-5-x---x---5-5-5-5-5-x---x---x-7-7-7-7-x---x---x-0-0-0-0-x-x-x-x--|
G||--3-3-3-3-5---5---3-3-3-3-3-5---5---5-7-7-7-7-3---3---3-0-0-0-0-2-2-2-2--|
C||--------------------------------------7-7-7-7-----------0-0-0-0----------|


Guitar 1:
D||------------------------------------------------------------------------|
A||------------------------------------------------------------------------|
F||----------9----9-------------9---9-------------9---9-------------9---9--|
C||--2-2-2-2-x----x---2-2-2-2-2-x---x---0-2-2-2-2-x---x---2-2-2-2-2-x---x--|
G||--2-2-2-2-7----7---2-2-2-2-2-7---7---0-2-2-2-2-7---7---2-2-2-2-2-7---7--|
C||--2-2-2-2----------2-2-2-2-2---------0-2-2-2-2---------2-2-2-2-2--------|


D||------------------------------------------------------------------------|
A||------------------------------------------------------------------------|
F||--5-5-5-5-7---7---5-5-5-5-5-7---7---7---------5---5---5---------12--11--|
C||--5-5-5-5-x---x---5-5-5-5-5-x---x---x-7-7-7-7-x---x---x-0-0-0-0-x---x---|
G||--3-3-3-3-5---5---3-3-3-3-3-5---5---5-7-7-7-7-3---3---3-0-0-0-0-10--9---|
C||--------------------------------------7-7-7-7-----------0-0-0-0---------|


Guitar 2:
D||--------------------------------------------------------------------------|
A||--------------------------------------------------------------------------|
F||----------12---12------------12--12------------12--12------------12--12---|
C||--2-2-2-2-x----x---2-2-2-2-2-x---x---0-2-2-2-2-x---x---2-2-2-2-2-x---x----|
G||--2-2-2-2-10---10--2-2-2-2-2-10--10--0-2-2-2-2-10--10--2-2-2-2-2-10--10---|
C||--2-2-2-2----------2-2-2-2-2---------0-2-2-2-2---------2-2-2-2-2----------|


D||--------------------------------------------------------------------------|
A||--------------------------------------------------------------------------|
F||--5-5-5-5-16--16--5-5-5-5-5-16--16--16---------14--14--14---------16--14--|
C||--5-5-5-5-x---x---5-5-5-5-5-x---x---x--7-7-7-7-x---x---x--0-0-0-0-x---x---|
G||--3-3-3-3-14--14--3-3-3-3-3-14--14--14-7-7-7-7-12--12--12-0-0-0-0-14--12--|
C||---------------------------------------7-7-7-7------------0-0-0-0---------|



[Bridge]
Guitar 1/2:
D||-----------------------------|-----------------------------|
A||------5---5-------5---5---5--|------5---5-------5---5---5--|
F||--x-x-x---x---x-x-x---x---x--|--x-x-x---x---x-x-x---x---x--|
C||--x-x-5---5---x-x-5---5---5--|--x-x-5---5---x-x-5---5---5--|
G||--x-x-3---3---x-x-3---3---3--|--x-x-3---3---x-x-3---3---3--|
C||-----------------------------|-----------------------------|


Guitar 2:
D||-----------------------------|-------------------------------|
A||-----------------------------|-------------------------------|
F||--x-x-11--11--x-x-11--11--11-|--x-x-14--14--x-x-19--16--16\--|
C||--x-x-x---x---x-x-x---x---x--|--x-x-x---x---x-x-x---x---x-\--|
G||--x-x-9---9---x-x-9---9---9--|--x-x-12--12--x-x-17--14--14\--|
C||-----------------------------|-------------------------------|


Guitar 1:
D||-----------------------------|-----------------------------|
A||------5---5-------5---5---5--|------5---5-------5---5---5--|
F||--x-x-x---x---x-x-x---x---x--|--x-x-x---x---x-x-x---x---x--|
C||--x-x-5---5---x-x-5---5---5--|--x-x-5---5---x-x-5---5---5--|
G||--x-x-3---3---x-x-3---3---3--|--x-x-3---3---x-x-3---3---3--|
C||-----------------------------|-----------------------------|



Guitar 2:
D||-------------------------------------------------------|
A||-------------------------------------------------------|
F||--12---12---12-12---12---12-----12-12-12-12---12---12--|
C||--x----x----x--x----x----x------x--x--x--x----x----x---|
G||--10---10---10-10---10---10-----10-10-10-10---10---10--|
C||-------------------------------------------------------|


D||-------------------------------------------------------|
A||-------------------------------------------------------|
F||--11---11---11-11---11---11-----11-11-11-11---11---11--|
C||--x----x----x--x----x----x------x--x--x--x----x----x---|
G||--10---10---10-10---10---10-----10-10-10-10---10---10--|
C||-------------------------------------------------------|


D||-------------------------------------------------|
A||-------------------------------------------------|
F||--9---9---9-9---9---9-11---11---11-11---11---11--|
C||--x---x---x-x---x---x-x----x----x--x----x----x---|
G||--7---7---7-7---7---7-9----9----9--9----9----9---|
C||-------------------------------------------------|


D||----------------------------------------------------------|
A||----------------------------------------------------------|
F||--16---16---16-16---16---16-----16-16-16-16/19---19---19--|
C||--x----x----x--x----x----x------x--x--x--x-/x----x----x---|
G||--14---14---14-14---14---14-----14-14-14-14/17---17---17--|
C||----------------------------------------------------------|


D||-------------------------------------------------------------|
A||-------------------------------------------------------------|
F||--19\14---14---14-14---14---14-----14-14-14-14/19---19---19--|
C||--x-\x----x----x--x----x----x------x--x--x--x-/x----x----x---|
G||--17\12---12---12-12---12---12-----12-12-12-12/17---17---17--|
C||-------------------------------------------------------------|


D||-------------------------------------------------------|
A||-------------------------------------------------------|
F||--16---16---16-16---16---16-11---11---11-11---11---11--|
C||--x----x----x--x----x----x--x----x----x--x----x----x---|
G||--14---14---14-14---14---14-9----9----9--9----9----9---|
C||-------------------------------------------------------|


Guitar 1:
D||-------------------------------------------|
A||--5---5---5-5---5---5-----5-5-5-5---5---5--|
F||--x---x---x-x---x---x-----x-x-x-x---x---x--|
C||--5---5---5-5---5---5-----5-5-5-5---5---5--|
G||--3---3---3-3---3---3-----3-3-3-3---3---3--|
C||-------------------------------------------|


D||-------------------------------------------|
A||--5---5---5-5---5---5-----5-5-5-5---5------|
F||--x---x---x-x---x---x-----x-x-x-x---x------|
C||--5---5---5-5---5---5-----5-5-5-5---5---0--|
G||--3---3---3-3---3---3-----3-3-3-3---3---0--|
C||----------------------------------------0--|


D||-------------------------------------------|
A||-------------------------------------------|
F||-------------------------------------------|
C||--3---3---3-3---3---3-0---0---0-0---0---0--| [x2]
G||--3---3---3-3---3---3-0---0---0-0---0---0--|
C||--3---3---3-3---3---3-0---0---0-0---0---0--|



[Pre-Chorus]
Guitar 2:
D||------|---------------------------------------------|
A||------|---------------------------------------------|
F||--9~--|--12-12-12-12-12-12-12-12-12-12-12-12-16-14--|
C||--x---|--x--x--x--x--x--x--x--x--x--x--x--x--x--x---|
G||--7~--|--10-10-10-10-10-10-10-10-10-10-10-10-14-12--|
C||------|---------------------------------------------|


Guitar 1:
D||------|-------------------------------|
A||------|-------------------------------|
F||--2~--|------------------5-5-5-5-5-5--|
C||--2~--|--5-5-5-5-5-5-5-5-5-5-5-5-5-5--|
G||--0~--|--3-3-3-3-3-3-3-3-3-3-3-3-3-3--|
C||------|-------------------------------|
            . . . . . . . .




[Chorus]
Guitar 1/2:
D||------------------------------------------------------------------------|
A||------------------------------------------------------------------------|
F||----------9----9-------------9---9-------------9---9-------------9---9--|
C||--2-2-2-2-x----x---2-2-2-2-2-x---x---0-2-2-2-2-x---x---2-2-2-2-2-x---x--|
G||--2-2-2-2-7----7---2-2-2-2-2-7---7---0-2-2-2-2-7---7---2-2-2-2-2-7---7--|
C||--2-2-2-2----------2-2-2-2-2---------0-2-2-2-2---------2-2-2-2-2--------|


D||-------------------------------------------------------------------------|
A||-------------------------------------------------------------------------|
F||--5-5-5-5-7---7---5-5-5-5-5-7---7---7---------5---5---5---------4-4-4-4--|
C||--5-5-5-5-x---x---5-5-5-5-5-x---x---x-7-7-7-7-x---x---x-0-0-0-0-x-x-x-x--|
G||--3-3-3-3-5---5---3-3-3-3-3-5---5---5-7-7-7-7-3---3---3-0-0-0-0-2-2-2-2--|
C||--------------------------------------7-7-7-7-----------0-0-0-0----------|


Guitar 1:
D||------------------------------------------------------------------------|
A||------------------------------------------------------------------------|
F||----------9----9-------------9---9-------------9---9-------------9---9--|
C||--2-2-2-2-x----x---2-2-2-2-2-x---x---0-2-2-2-2-x---x---2-2-2-2-2-x---x--|
G||--2-2-2-2-7----7---2-2-2-2-2-7---7---0-2-2-2-2-7---7---2-2-2-2-2-7---7--|
C||--2-2-2-2----------2-2-2-2-2---------0-2-2-2-2---------2-2-2-2-2--------|


D||-----------------------------------------------------------------|
A||-----------------------------------------------------------------|
F||--5-5-5-5-7---7---5-5-5-5-5-7---7---7---------5---5---5----------|
C||--5-5-5-5-x---x---5-5-5-5-5-x---x---x-7-7-7-7-x---x---x-0-0-0-0--|
G||--3-3-3-3-5---5---3-3-3-3-3-5---5---5-7-7-7-7-3---3---3-0-0-0-0--|
C||--------------------------------------7-7-7-7-----------0-0-0-0--|


Guitar 2:
D||--------------------------------------------------------------------------|
A||--------------------------------------------------------------------------|
F||----------12---12------------12--12------------12--12------------12--12---|
C||--2-2-2-2-x----x---2-2-2-2-2-x---x---0-2-2-2-2-x---x---2-2-2-2-2-x---x----|
G||--2-2-2-2-10---10--2-2-2-2-2-10--10--0-2-2-2-2-10--10--2-2-2-2-2-10--10---|
C||--2-2-2-2----------2-2-2-2-2---------0-2-2-2-2---------2-2-2-2-2----------|


D||-------------------------------------------------------------------|
A||-------------------------------------------------------------------|
F||--5-5-5-5-16--16--5-5-5-5-5-16--16--16---------14--14--14----------|
C||--5-5-5-5-x---x---5-5-5-5-5-x---x---x--7-7-7-7-x---x---x--0-0-0-0--|
G||--3-3-3-3-14--14--3-3-3-3-3-14--14--14-7-7-7-7-12--12--12-0-0-0-0--|
C||---------------------------------------7-7-7-7------------0-0-0-0--|



[Outro]
Guitar 1/2:
D||------------------------------------------------------------------|
A||------------------------------------------------------------------|
F||----------9----9-------------9---9-------------9---9---9----------|
C||--2-2-2-2-x----x---2-2-2-2-2-x---x---0-2-2-2-2-x---x---x-2-2-2-2--|
G||--2-2-2-2-7----7---2-2-2-2-2-7---7---0-2-2-2-2-7---7---7-2-2-2-2--|
C||--2-2-2-2----------2-2-2-2-2---------0-2-2-2-2-----------2-2-2-2--|





____________________________________________________________________________________________________

                                            T07.   DEMONS
____________________________________________________________________________________________________





Tuning: Drop C (C G C F A D)


[Intro]
Guitar 1/2:
D||----------------------------------------|-------------------------------------------------|
A||----------------------------------------|-------------------------------------------------|
F||----------------------------------------|-------------------------------------------------|
C||--2--3--0------------2--3--0------------|--2--3--0------------5--5--3--2------------------|
G||--1--1--1------------x--x--x------------|--1--1--1------------3--3--3--3------------//\\--|
C||---------------------0--0--0------------|-------------------------------------------//\\--|



[Pre-Verse]
Guitar 1:
D||----------------------------------------|----------------------------------------------------------|
A||----------------------------------------|----------------------------------------------------------|
F||----------------------------------------|----------------------------------------------------------|
C||--2--3--0------------2--3--0------------|--2--3--0------------5--5--3--2---------------------------|
G||--1--1--1------------x--x--x------------|--1--1--1------------3--3--3--3---------------\\pick-\\---|
C||---------------------0--0--0------------|-----------------------------------------------\\slide\\--|


Guitar 2:
D||----------------------------------------|----------------------------------------------------------|
A||----------------------------------------|----------------------------------------------------------|
F||--3--------9--10--7-----------9--10--7--|--3--------9--10--7--------------7--7--10--9--------------|
C||--x--------x--x---x-----------x--x---x--|--x--------x--x---x--------------x--x--x---x--------------|
G||--1--------7--8---5-----------7--8---5--|--1--------7--8---5--------------5--5--8---7--\\pick-\\---|
C||----------------------------------------|-----------------------------------------------\\slide\\--|



[Verse]
Guitar 1:
D||-----------------------------|-------------------------------------|
A||-----------------------------|-------------------------------------|
F||--9---7---3-3---3-3---3-3-3--|--9---10---10-10---10-10---10-10-10--|
C||--x---x---x-x---x-x---x-x-x--|--x---x----x--x----x--x----x--x--x---|
G||--7---5---1-1---1-1---1-1-1--|--7---9----9--9----9--9----9--9--9---|
C||-----------------------------|-------------------------------------|


D||--------------------------------------|-------------------------------------|
A||--------------------------------------|-------------------------------------|
F||--14---12---10-10---10-10---10-10-10--|--9---10---10-10---10-10---10-10-10--|
C||--x----x----x--x----x--x----x--x--x---|--x---x----x--x----x--x----x--x--x---|
G||--12---10---8--8----8--8----8--8--8---|--7---8----8--8----8--8----8--8--8---|
C||--------------------------------------|-------------------------------------|


D||--------------------------------------|--------------------------------------|
A||--------------------------------------|--------------------------------------|
F||--15---14---12-12---12-12---12-12-12--|--15---14---12-12---12-12---12-12-12--|
C||--x----x----x--x----x--x----x--x--x---|--x----x----x--x----x--x----x--x--x---|
G||--13---12---10-10---10-10---10-10-10--|--13---12---10-10---10-10---10-10-10--|
C||--------------------------------------|--------------------------------------|


D||-----------------------------|-------------------------|
A||-----------------------------|-------------------------|
F||--9---9---9-9---9-9---9-9-9--|--12---12---10-9---------|
C||--x---x---x-x---x-x---x-x-x--|--x----x----x--x---//\\--|
G||--7---7---7-7---7-7---7-7-7--|--10---10---8--7---//\\--|
C||-----------------------------|-------------------//\\--|


Guitar 2:
D||-----------------------------|-----------------------------|
A||-----------------------------|-----------------------------|
F||-----------------------------|-----------------------------|
C||--8---8---8-8---8-8---8-8-8--|--8---8---8-8---8-8---8-8-8--|
G||--8---8---8-8---8-8---8-8-8--|--8---8---8-8---8-8---8-8-8--|
C||--8---8---8-8---8-8---8-8-8--|--8---8---8-8---8-8---8-8-8--|


D||-----------------------------|-----------------------------|
A||-----------------------------|-----------------------------|
F||-----------------------------|-----------------------------|
C||--0---0---0-0---0-0---0-0-0--|--0---0---0-0---0-0---0-0-0--|
G||--0---0---0-0---0-0---0-0-0--|--0---0---0-0---0-0---0-0-0--|
C||--0---0---0-0---0-0---0-0-0--|--0---0---0-0---0-0---0-0-0--|


D||-----------------------------|-----------------------------|
A||-----------------------------|-----------------------------|
F||-----------------------------|-----------------------------|
C||--8---8---8-8---8-8---8-8-8--|--8---8---8-8---8-8---8-8-8--|
G||--x---x---x-x---x-x---x-x-x--|--x---x---x-x---x-x---x-x-x--|
C||--5---5---5-5---5-5---5-5-5--|--5---5---5-5---5-5---5-5-5--|


D||--------------------------------------|--------------------------|
A||--------------------------------------|--------------------------|
F||--------------------------------------|--------------------------|
C||--10---10---10-10---10-10---10-10-10--|--10---10---10-10---//\\--|
G||--10---10---10-10---10-10---10-10-10--|--10---10---10-10---//\\--|
C||--10---10---10-10---10-10---10-10-10--|--10---10---10-10---//\\--|



[Chorus]
Guitar 1:
D||------------------------------------------------------------------------------------------------|
A||------------------------------------------------------------------------------------------------|
F||--7-7-7-9--9--9--10-10-10-10-10-10-10-10-10-10-14-14-14-10-10-10-12-12-12-12-12-12-12-12-12-12--|
C||--7-7-7-10-10-10-12-12-12-12-12-12-12-12-12-12-15-15-15-12-12-12-14-14-14-14-14-14-14-14-14-14--|
G||------------------------------------------------------------------------------------------------|
C||------------------------------------------------------------------------------------------------|


D||-------------------------------------------------------------------------------------------|
A||-------------------------------------------------------------------------------------------|
F||--7-7-7-9--9--9--10-10-10-10-10-10-10-10-10-10-14-14-14-10-10-10-10-10-9-------------------|
C||--7-7-7-10-10-10-12-12-12-12-12-12-12-12-12-12-15-15-15-12-12-12-12-12-10------------------|
G||-------------------------------------------------------------------------------\\pick\\----|
C||--------------------------------------------------------------------------------\\slide\\--|


Guitar 2:
D||-------------------------------------------------------------------|
A||-------------------------------------------------------------------|
F||--7-7-7-7-7-7-7-7-7-5-5--------------------------------------------|
C||--7-7-7-7-7-7-7-7-7-5-5-3-3-5-5-0-8-8-8-8-8-8-8-8-7-7-8-10-7-8-10--|
G||--5-5-5-5-5-5-5-5-5-3-3-3-3-5-5-0-8-8-8-8-8-8-8-8-7-7-8-10-7-8-10--|
C||------------------------3-3-5-5-0-8-8-8-8-8-8-8-8-7-7-8-10-7-8-10--|


D||---------------------------------------------------------------------|
A||---------------------------------------------------------------------|
F||--7-7-7-7-7-7-7-7-7-5-5----------------------------------------------|
C||--7-7-7-7-7-7-7-7-7-5-5-3-3-5-5-0-8-8-8-8-8-8-8-10-7-----------------|
G||--5-5-5-5-5-5-5-5-5-3-3-3-3-5-5-0-8-8-8-8-8-8-8-10-7-----\\pick-\\---|
C||------------------------3-3-5-5-0-8-8-8-8-8-8-8-10-7------\\slide\\--|



[Pre-Verse]
Guitar 1:
D||----------------------------------------|-------------------------------------------------------------|
A||----------------------------------------|-------------------------------------------------------------|
F||----------------------------------------|-------------------------------------------------------------|
C||--2--3--0------------2--3--0------------|--2--3--0------------5--5--3--2------------------------------|
G||--1--1--1------------x--x--x------------|--1--1--1------------3--3--3--3------------------\\pick-\\---|
C||---------------------0--0--0------------|--------------------------------------------------\\slide\\--|


Guitar 2:
D||----------------------------------------|-------------------------------------------------------------|
A||----------------------------------------|-------------------------------------------------------------|
F||----------------------------------------|--3--------9--10--7-----------------7--7--10--9--------------|
C||--2--3--0------------2--3--0------------|--x--------x--x---x-----------------x--x--x---x--------------|
G||--1--1--1------------x--x--x------------|--1--------7--8---5-----------------5--5--8---7--\\pick-\\---|
C||---------------------0--0--0------------|--------------------------------------------------\\slide\\--|



[Verse]
Guitar 1:
D||-----------------------------|-------------------------------------|
A||-----------------------------|-------------------------------------|
F||--9---7---3-3---3-3---3-3-3--|--9---10---10-10---10-10---10-10-10--|
C||--x---x---x-x---x-x---x-x-x--|--x---x----x--x----x--x----x--x--x---|
G||--7---5---1-1---1-1---1-1-1--|--7---9----9--9----9--9----9--9--9---|
C||-----------------------------|-------------------------------------|


D||--------------------------------------|-------------------------------------|
A||--------------------------------------|-------------------------------------|
F||--14---12---10-10---10-10---10-10-10--|--9---10---10-10---10-10---10-10-10--|
C||--x----x----x--x----x--x----x--x--x---|--x---x----x--x----x--x----x--x--x---|
G||--12---10---8--8----8--8----8--8--8---|--7---8----8--8----8--8----8--8--8---|
C||--------------------------------------|-------------------------------------|


D||--------------------------------------|--------------------------------------|
A||--------------------------------------|--------------------------------------|
F||--15---14---12-12---12-12---12-12-12--|--15---14---12-12---12-12---12-12-12--|
C||--x----x----x--x----x--x----x--x--x---|--x----x----x--x----x--x----x--x--x---|
G||--13---12---10-10---10-10---10-10-10--|--13---12---10-10---10-10---10-10-10--|
C||--------------------------------------|--------------------------------------|


D||-----------------------------|-------------------------|
A||-----------------------------|-------------------------|
F||--9---9---9-9---9-9---9-9-9--|--12---12---10-9---------|
C||--x---x---x-x---x-x---x-x-x--|--x----x----x--x---//\\--|
G||--7---7---7-7---7-7---7-7-7--|--10---10---8--7---//\\--|
C||-----------------------------|-------------------//\\--|


Guitar 2:
D||-----------------------------|-----------------------------|
A||-----------------------------|-----------------------------|
F||-----------------------------|-----------------------------|
C||--8---8---8-8---8-8---8-8-8--|--8---8---8-8---8-8---8-8-8--|
G||--8---8---8-8---8-8---8-8-8--|--8---8---8-8---8-8---8-8-8--|
C||--8---8---8-8---8-8---8-8-8--|--8---8---8-8---8-8---8-8-8--|


D||-----------------------------|-----------------------------|
A||-----------------------------|-----------------------------|
F||-----------------------------|-----------------------------|
C||--0---0---0-0---0-0---0-0-0--|--0---0---0-0---0-0---0-0-0--|
G||--0---0---0-0---0-0---0-0-0--|--0---0---0-0---0-0---0-0-0--|
C||--0---0---0-0---0-0---0-0-0--|--0---0---0-0---0-0---0-0-0--|


D||-----------------------------|-----------------------------|
A||-----------------------------|-----------------------------|
F||-----------------------------|-----------------------------|
C||--8---8---8-8---8-8---8-8-8--|--8---8---8-8---8-8---8-8-8--|
G||--x---x---x-x---x-x---x-x-x--|--x---x---x-x---x-x---x-x-x--|
C||--5---5---5-5---5-5---5-5-5--|--5---5---5-5---5-5---5-5-5--|


D||--------------------------------------|--------------------------------|
A||--------------------------------------|--------------------------------|
F||--------------------------------------|--------------------------------|
C||--10---10---10-10---10-10---10-10-10--|--10---10---10-10---x--x--x--x--|
G||--10---10---10-10---10-10---10-10-10--|--10---10---10-10---x--x--x--x--|
C||--10---10---10-10---10-10---10-10-10--|--10---10---10-10---x--x--x--x--|



[Chorus]
Guitar 1:
D||------------------------------------------------------------------------------------------------|
A||------------------------------------------------------------------------------------------------|
F||--7-7-7-9--9--9--10-10-10-10-10-10-10-10-10-10-14-14-14-10-10-10-12-12-12-12-12-12-12-12-12-12--|
C||--7-7-7-10-10-10-12-12-12-12-12-12-12-12-12-12-15-15-15-12-12-12-14-14-14-14-14-14-14-14-14-14--| x3
G||------------------------------------------------------------------------------------------------|
C||------------------------------------------------------------------------------------------------|


D||---------------------------------------------------------------------------|
A||---------------------------------------------------------------------------|
F||--7-7-7-9--9--9--10-10-10-10-10-10-10-10-10-10-14-14-14-10-10-10-10-10-9---|
C||--7-7-7-10-10-10-12-12-12-12-12-12-12-12-12-12-15-15-15-12-12-12-12-12-10--|
G||---------------------------------------------------------------------------|
C||---------------------------------------------------------------------------|


Guitar 2:
D||-------------------------------------------------------------------|
A||-------------------------------------------------------------------|
F||--7-7-7-7-7-7-7-7-7-5-5--------------------------------------------|
C||--7-7-7-7-7-7-7-7-7-5-5-3-3-5-5-0-8-8-8-8-8-8-8-8-7-7-8-10-7-8-10--|
G||--5-5-5-5-5-5-5-5-5-3-3-3-3-5-5-0-8-8-8-8-8-8-8-8-7-7-8-10-7-8-10--|
C||------------------------3-3-5-5-0-8-8-8-8-8-8-8-8-7-7-8-10-7-8-10--|


D||--------------------------------------------------------------------|
A||--------------------------------------------------------------------|
F||--7-7-7-7-7-7-7-7-7-5-5---------------------------------------------|
C||--7-7-7-7-7-7-7-7-7-5-5-3-3-5-5-0-8-8-8-8-8-8-8-10-7-7-7-7-7-7-7-7--| [x2]
G||--5-5-5-5-5-5-5-5-5-3-3-3-3-5-5-0-8-8-8-8-8-8-8-10-7-7-7-7-7-7-7-7--|
C||------------------------3-3-5-5-0-8-8-8-8-8-8-8-10-7-7-7-7-7-7-7-7--|
                                                        . . . .



[Breakdown]
Guitar 1/2:
D||-------------------------------------------------------------------------------|
A||-------------------------------------------------------------------------------|
F||-------------------------------------------------------------------------------|
C||--0--0------0--0----0---------0-0-0------0--0------0--0----0------2-2-2-3-3-3--|
G||--0--0------0--0----0---------0-0-0------0--0------0--0----0------3-3-3-3-3-3--|
C||--0--0------0--0----0---------0-0-0------0--0------0--0----0-------------------|
     .  .      .  .    .         . . .      .  .      .  .    .


D||-------------------------------------------------------------------------------|
A||-------------------------------------------------------------------------------|
F||----------------------------------'3-------------------------------------------|
C||--0--0------0--0----0----0----0-0--------0--0------0--0----0------2-2-2-3-3-3--|
G||--0--0------0--0----0----0----0-0--------0--0------0--0----0------3-3-3-3-3-3--|
C||--0--0------0--0----0----0----0-0--------0--0------0--0----0-------------------|
     .  .      .  .    .    .    . .        .  .      .  .    .



[Chorus]
Guitar 1:
D||------------------------------------------------------------------------------------------------|
A||------------------------------------------------------------------------------------------------|
F||--7-7-7-9--9--9--10-10-10-10-10-10-10-10-10-10-14-14-14-10-10-10-12-12-12-12-12-12-12-12-12-12--|
C||--7-7-7-10-10-10-12-12-12-12-12-12-12-12-12-12-15-15-15-12-12-12-14-14-14-14-14-14-14-14-14-14--| x3
G||------------------------------------------------------------------------------------------------|
C||------------------------------------------------------------------------------------------------|


D||---------------------------------------------------------------------------|
A||---------------------------------------------------------------------------|
F||--7-7-7-9--9--9--10-10-10-10-10-10-10-10-10-10-14-14-14-10-10-10-10-10-9---|
C||--7-7-7-10-10-10-12-12-12-12-12-12-12-12-12-12-15-15-15-12-12-12-12-12-10--|
G||---------------------------------------------------------------------------|
C||---------------------------------------------------------------------------|


Guitar 2:
D||-------------------------------------------------------------------|
A||-------------------------------------------------------------------|
F||--7-7-7-7-7-7-7-7-7-5-5--------------------------------------------|
C||--7-7-7-7-7-7-7-7-7-5-5-3-3-5-5-0-8-8-8-8-8-8-8-8-7-7-8-10-7-8-10--|
G||--5-5-5-5-5-5-5-5-5-3-3-3-3-5-5-0-8-8-8-8-8-8-8-8-7-7-8-10-7-8-10--|
C||------------------------3-3-5-5-0-8-8-8-8-8-8-8-8-7-7-8-10-7-8-10--|


D||--------------------------------------------------------------------|
A||--------------------------------------------------------------------|
F||--7-7-7-7-7-7-7-7-7-5-5---------------------------------------------|
C||--7-7-7-7-7-7-7-7-7-5-5-3-3-5-5-0-8-8-8-8-8-8-8-10-7-7-7-7-7-7-7-7--|
G||--5-5-5-5-5-5-5-5-5-3-3-3-3-5-5-0-8-8-8-8-8-8-8-10-7-7-7-7-7-7-7-7--|
C||------------------------3-3-5-5-0-8-8-8-8-8-8-8-10-7-7-7-7-7-7-7-7--|
                                                        . . . .



[Outro]
Guitar 1:
D||-------------------------------------------------|--------------------------------------------------|
A||-------------------------------------------------|--------------------------------------------------|
F||--12-12-12-10-10-10-14-14-14-10-10-10-7-7-10-10--|--12-12-12-10-10-10-14-14-14-15-15-15-12-9-10-12--|
C||--x--x--x--x--x--x--x--x--x--x--x--x--x-x-x--x---|--x--x--x--x--x--x--x--x--x--x--x--x--x--x-x--x---|
G||--10-10-10-8--8--8--12-12-12-8--8--8--5-5-8--8---|--10-10-10-8--8--8--12-12-12-13-13-13-10-7-8--10--|
C||-------------------------------------------------|--------------------------------------------------|


D||-------------------------------------------------|--------------------------------------------------|
A||-------------------------------------------------|--------------------------------------------------|
F||--12-12-12-10-10-10-14-14-14-10-10-10-7-7-10-10--|--12-12-12-12-12-12-12-14-9--9--9--9--9--9--9--9--|
C||--x--x--x--x--x--x--x--x--x--x--x--x--x-x-x--x---|--x--x--x--x--x--x--x--x--x--x--x--x--x--x--x--x--|
G||--10-10-10-8--8--8--12-12-12-8--8--8--5-5-8--8---|--10-10-10-10-10-10-10-12-7--7--7--7--7--7--7--7--|
C||-------------------------------------------------|--------------------------------------------------|


Guitar 2:
D||-------------------------------------------------------------------|
A||-------------------------------------------------------------------|
F||--7-7-7-7-7-7-7-7-7-5-5--------------------------------------------|
C||--7-7-7-7-7-7-7-7-7-5-5-3-3-5-5-0-8-8-8-8-8-8-8-8-7-7-8-10-7-8-10--|
G||--5-5-5-5-5-5-5-5-5-3-3-3-3-5-5-0-8-8-8-8-8-8-8-8-7-7-8-10-7-8-10--|
C||------------------------3-3-5-5-0-8-8-8-8-8-8-8-8-7-7-8-10-7-8-10--|


D||--------------------------------------------------------------------|
A||--------------------------------------------------------------------|
F||--7-7-7-7-7-7-7-7-7-5-5---------------------------------------------|
C||--7-7-7-7-7-7-7-7-7-5-5-3-3-5-5-0-8-8-8-8-8-8-8-10-7-7-7-7-7-7-7-7--|
G||--5-5-5-5-5-5-5-5-5-3-3-3-3-5-5-0-8-8-8-8-8-8-8-10-7-7-7-7-7-7-7-7--|
C||------------------------3-3-5-5-0-8-8-8-8-8-8-8-10-7-7-7-7-7-7-7-7--|
                                                        . . . .


Guitar 1/2:
D||------------------------|
A||------------------------|
F||------------------------|
C||--0--0------0--0----0~--|
G||--0--0------0--0----0~--|
C||--0--0------0--0----0~--|
     .  .      .  .    .





____________________________________________________________________________________________________

                                        T08.   THE AFTERGLOW
____________________________________________________________________________________________________





Tuning: Drop C (C G C F A D)


Guitar 1 - Left Speaker
Guitar 2 - Right Speaker


[Intro]
Guitar 1:
D||-------------------------------------------------------------------|
A||-------------------------------------------------------------------|
F||------------------5-5-5-5-5-5-5-5-9-9-9-9-9-9-9-9-9-9-9-9-9-9-9-9--|
C||--7-7-7-7-7-7-7-7-3-3-3-3-3-3-3-3-7-7-7-7-7-7-7-7-7-7-7-7-7-7-7-7--|
G||--5-5-5-5-5-5-5-5--------------------------------------------------|
C||-------------------------------------------------------------------|


D||---------------------------------------------------------|
A||---------------------------------------------------------|
F||--10-10-10-10-10-10-10-10-9-9-9-9-9-9-9-9----------------|
C||--8--8--8--8--8--8--8--8--7-7-7-7-7-7-7-7-5-5-5-5-5-5-5--|
G||------------------------------------------3-3-3-3-3-3-3--|
C||---------------------------------------------------------|


Guitar 2:
D||-------------------------------------------------------------------|
A||--6-6-6-6-6-6-6-6-1-1-1-1-1-1-1-1-5-5-5-5-5-5-5-5-6-6-5-5-5-5-5-5--|
F||--7-7-7-7-7-7-7-7-2-2-2-2-2-2-2-2-5-5-5-5-5-5-5-5-5-5-5-5-5-5-5-5--|
C||-------------------------------------------------------------------|
G||-------------------------------------------------------------------|
C||-------------------------------------------------------------------|


D||----------------------------------------------------------------|
A||------------------10-10-10-10-10-10-10-10-8--8--8--8--8--8--8---|
F||--5-5-5-5-5-5-5-5-10-10-10-10-10-10-10-10-10-10-10-10-10-10-10--|
C||--5-5-5-5-5-5-5-5-----------------------------------------------|
G||----------------------------------------------------------------|
C||----------------------------------------------------------------|



[Pre-Verse]
Guitar 1:
D||-------------------------------------------------------------------|
A||-------------------------------------------------------------------|
F||------------------5-5-5-5-5-5-5-5-9-9-9-9-9-9-9-9-9-9-9-9-9-9-9-9--|
C||--7-7-7-7-7-7-7-7-3-3-3-3-3-3-3-3-7-7-7-7-7-7-7-7-7-7-7-7-7-7-7-7--|
G||--5-5-5-5-5-5-5-5--------------------------------------------------|
C||-------------------------------------------------------------------|


D||---------------------------------------------------------------------------|
A||---------------------------------------------------------------------------|
F||--10-10-10-10-10-10-10-10-9-9-9-9-9-9-9-9----------------------------------|
C||--8--8--8--8--8--8--8--8--7-7-7-7-7-7-7-7-5-5-5-5-5-5-5-5-5-5-5-5-5-5-5-5--|
G||------------------------------------------3-3-3-3-3-3-3-3-3-3-3-3-3-3-3-3--|
C||---------------------------------------------------------------------------|


Guitar 2:
D||-------------------------------------------------------------------|
A||--6-6-6-6-6-6-6-6-1-1-1-1-1-1-1-1-5-5-5-5-5-5-5-5-5-5-5-5-5-5-5-5--|
F||--7-7-7-7-7-7-7-7-2-2-2-2-2-2-2-2-5-5-5-5-5-5-5-5-5-5-5-5-5-5-5-5--|
C||-------------------------------------------------------------------|
G||-------------------------------------------------------------------|
C||-------------------------------------------------------------------|


D||-------------------------------------------------------------------------------------------|
A||------------------10-10-10-10-10-10-10-10-8--8--8--8--8--8--8--8--8--8--8--8--8--8--8--8---|
F||--5-5-5-5-5-5-5-5-10-10-10-10-10-10-10-10-10-10-10-10-10-10-10-10-10-10-10-10-10-10-10-10--|
C||--5-5-5-5-5-5-5-5--------------------------------------------------------------------------|
G||-------------------------------------------------------------------------------------------|
C||-------------------------------------------------------------------------------------------|


Guitar 3 (Dub):
D||-------------------------------------------------------------------|
A||-------------------------------------------------------------------|
F||--7-7-7-7-7-7-7-7--------------------------------------------------|
C||--7-7-7-7-7-7-7-7-3-3-3-3-3-3-3-3-7-7-7-7-7-7-7-7-7-7-7-7-7-7-7-7--|
G||--5-5-5-5-5-5-5-5-3-3-3-3-3-3-3-3-7-7-7-7-7-7-7-7-7-7-7-7-7-7-7-7--|
C||------------------3-3-3-3-3-3-3-3-7-7-7-7-7-7-7-7-7-7-7-7-7-7-7-7--|


D||-------------------------------------------------------------------|
A||-------------------------------------------------------------------|
F||------------------7-7-7-7-7-7-7-7-5-5-5-5-5-5-5-5-5-5-5-5-5-5-5-5--|
C||--5-5-5-5-5-5-5-5-7-7-7-7-7-7-7-7-5-5-5-5-5-5-5-5-5-5-5-5-5-5-5-5--|
G||--5-5-5-5-5-5-5-5-5-5-5-5-5-5-5-5-3-3-3-3-3-3-3-3-3-3-3-3-3-3-3-3--|
C||--5-5-5-5-5-5-5-5--------------------------------------------------|



[Verse]
Guitar 1/2:
D||-------------------------------------------------------------------|
A||-------------------------------------------------------------------|
F||-------------------------------------------------------------------|
C||--7-7-7-7-7-7-7-7-7------------------------------------------------|
G||--5-5-5-5-5-5-5-5-5-3-3-3-3-3-3-3-8-8-8-8-8-8-8-8-8-3-3-3-3-3-3-3--|
C||--------------------3-3-3-3-3-3-3-8-8-8-8-8-8-8-8-8-3-3-3-3-3-3-3--|
     . . . . . . . . . . . . . . . . . . . . . . . . . . . . . . . .


D||----------------------------------------------------------------------|
A||----------------------------------------------------------------------|
F||----------------------------------------------------------------------|
C||------------------7-7-7-7-7-7-7-7-------------------------------------|
G||--7-7-7-7-7-7-7-7-5-5-5-5-5-5-5-5-8-8-8-8-8-8-8-8-8-8-8-8-8-10-10-10--|
C||--7-7-7-7-7-7-7-7-----------------8-8-8-8-8-8-8-8-8-8-8-8-8-10-10-10--|
     . . . . . . . . . . . . . . . . . . . . . . . . . . . . .


Guitar 1:
D||-------------------------------------------------------------------|
A||-------------------------------------------------------------------|
F||-------------------------------------------------------------------|
C||--7-7-7-7-7-7-7-7-7------------------------------------------------|
G||--5-5-5-5-5-5-5-5-5-3-3-3-3-3-3-3-8-8-8-8-8-8-8-8-8-3-3-3-3-3-3-3--|
C||--------------------3-3-3-3-3-3-3-8-8-8-8-8-8-8-8-8-3-3-3-3-3-3-3--|
     . . . . . . . . . . . . . . . . . . . . . . . . . . . . . . . .


D||----------------------------------------------------------------------|
A||----------------------------------------------------------------------|
F||----------------------------------------------------------------------|
C||------------------7-7-7-7-7-7-7-7-------------------------------------|
G||--7-7-7-7-7-7-7-7-5-5-5-5-5-5-5-5-8-8-8-8-8-8-8-8-8-8-8-8-8/10-10-10--|
C||--7-7-7-7-7-7-7-7-----------------8-8-8-8-8-8-8-8-8-8-8-8-8/10-10-10--|
     . . . . . . . . . . . . . . . . . . . .


Guitar 2:
D||------------------------------------------------------------------------------------------------|
A||------------------------------------------------------------------------------------------------|
F||------------------------0-------------0-------------0--------------------------------0-0-0-0----|
C||---------------------------------5/7-----------5/7----------------------------------------------|
G||--7h8-8-8-8-8-8-8-7h8-8----8-8-8---------8-8-8---------8-8-8-5-5-5-5-7-7-7-7-8-8-8-8---------8--|
C||------------------------------------------------------------------------------------------------|



[Pre-Chorus]
Guitar 1/2:
D||---------------|
A||---------------|
F||---------------|
C||--12------p10--|
G||--8------------|
C||--8------------|



[Chorus]
Guitar 1:
D||-------------------------------------------------------------------|
A||-------------------------------------------------------------------|
F||------------------5-5-5-5-5-5-5-5-9-9-9-9-9-9-9-9-9-9-9-9-9-9-9-9--|
C||--7-7-7-7-7-7-7-7-3-3-3-3-3-3-3-3-7-7-7-7-7-7-7-7-7-7-7-7-7-7-7-7--|
G||--5-5-5-5-5-5-5-5--------------------------------------------------|
C||-------------------------------------------------------------------|


D||---------------------------------------------------------------------------|
A||---------------------------------------------------------------------------|
F||--10-10-10-10-10-10-10-10-9-9-9-9-9-9-9-9----------------------------------|
C||--8--8--8--8--8--8--8--8--7-7-7-7-7-7-7-7-5-5-5-5-5-5-5-5-5-5-5-5-5-5-5-5--| [x2]
G||------------------------------------------3-3-3-3-3-3-3-3-3-3-3-3-3-3-3-3--|
C||---------------------------------------------------------------------------|


Guitar 2:
D||-------------------------------------------------------------------|
A||--6-6-6-6-6-6-6-6-1-1-1-1-1-1-1-1-5-5-5-5-5-5-5-5-5-5-5-5-5-5-5-5--|
F||--7-7-7-7-7-7-7-7-2-2-2-2-2-2-2-2-5-5-5-5-5-5-5-5-5-5-5-5-5-5-5-5--|
C||-------------------------------------------------------------------|
G||-------------------------------------------------------------------|
C||-------------------------------------------------------------------|


D||-------------------------------------------------------------------------------------------|
A||------------------10-10-10-10-10-10-10-10-8--8--8--8--8--8--8--8--8--8--8--8--8--8--8--8---|
F||--5-5-5-5-5-5-5-5-10-10-10-10-10-10-10-10-10-10-10-10-10-10-10-10-10-10-10-10-10-10-10-10--|
C||--5-5-5-5-5-5-5-5--------------------------------------------------------------------------| [x2]
G||-------------------------------------------------------------------------------------------|
C||-------------------------------------------------------------------------------------------|


Guitar 3 (Dub):
D||-------------------------------------------------------------------|
A||-------------------------------------------------------------------|
F||--7-7-7-7-7-7-7-7--------------------------------------------------|
C||--7-7-7-7-7-7-7-7-3-3-3-3-3-3-3-3-7-7-7-7-7-7-7-7-7-7-7-7-7-7-7-7--|
G||--5-5-5-5-5-5-5-5-3-3-3-3-3-3-3-3-7-7-7-7-7-7-7-7-7-7-7-7-7-7-7-7--|
C||------------------3-3-3-3-3-3-3-3-7-7-7-7-7-7-7-7-7-7-7-7-7-7-7-7--|


D||-------------------------------------------------------------------|
A||-------------------------------------------------------------------|
F||------------------7-7-7-7-7-7-7-7-5-5-5-5-5-5-5-5-5-5-5-5-5-5-5-5--|
C||--5-5-5-5-5-5-5-5-7-7-7-7-7-7-7-7-5-5-5-5-5-5-5-5-5-5-5-5-5-5-5-5--| [x2]
G||--5-5-5-5-5-5-5-5-5-5-5-5-5-5-5-5-3-3-3-3-3-3-3-3-3-3-3-3-3-3-3-3--|
C||--5-5-5-5-5-5-5-5--------------------------------------------------|



[Verse]
Guitar 1/2:
D||--------------------------------------------------------------------------|
A||--------------------------------------------------------------------------|
F||--------------------------------------------------------------------------|
C||--7-7-7-7-7---------------------------------------------------------------|
G||--5-5-5-5-5---------3-3-3---3-----8-8-8-8-8---------3-3-3---3-----3---/---|
C||--------------------3-3-3---3-----8-8-8-8-8---------3-3-3---3-----3---/---|
     . . . . .         . . .   .     . . . . .         . . .   .


D||--------------------------------------------------------------------------|
A||--------------------------------------------------------------------------|
F||--------------------------------------------------------------------------|
C||--------------------7-7-7-7-7---------------------------------------------|
G||--7-7-7-7-7---------5-5-5-5-5---------8-8-8-8-8-8-8-8-8-8-8-8-8-10-10-10--|
C||--7-7-7-7-7---------------------------8-8-8-8-8-8-8-8-8-8-8-8-8-10-10-10--|
     . . . . .         . . . . .         . . . . . . . . . . . . .


Guitar 1:
D||--------------------------------------------------------------------------|
A||--------------------------------------------------------------------------|
F||--------------------------------------------------------------------------|
C||--7-7-7-7-7---------------------------------------------------------------|
G||--5-5-5-5-5---------3-3-3---3-----8-8-8-8-8---------3-3-3---3-----3---/---|
C||--------------------3-3-3---3-----8-8-8-8-8---------3-3-3---3-----3---/---|
     . . . . .         . . .   .     . . . . .         . . .   .


D||--------------------------------------------------------------------------|
A||--------------------------------------------------------------------------|
F||--------------------------------------------------------------------------|
C||--------------------7-7-7-7-7---------------------------------------------|
G||--7-7-7-7-7---------5-5-5-5-5---------8-8-8-8-8-8-8-8-8-8-8-8-8/10-10-10--|
C||--7-7-7-7-7---------------------------8-8-8-8-8-8-8-8-8-8-8-8-8/10-10-10--|
     . . . . .         . . . . .         . . . .


Guitar 2:
D||------------------------------------------------------------------------------------------------|
A||------------------------------------------------------------------------------------------------|
F||------------------------0-------------0-------------0--------------------------------0-0-0-0----|
C||---------------------------------5/7-----------5/7----------------------------------------------|
G||--7h8-8-8-8-8-8-8-7h8-8----8-8-8---------8-8-8---------8-8-8-5-5-5-5-7-7-7-7-8-8-8-8---------8--|
C||------------------------------------------------------------------------------------------------|



[Pre-Chorus]
Guitar 1:
D||----------------------------------------|
A||----------------------------------------|
F||----------------------------------------|
C||--12--------5--------10--------8----10--|
G||--8---------3--------7---------8----10--|
C||--8---------3--------7---------8----10--|


Guitar 2:
D||----------------------------------------|
A||----------------------------------------|
F||--7---------5-------/9------------------|
C||--x---------x-------/x------------------|
G||--5---------3-------/7------------------|
C||----------------------------------------|



[Chorus]
Guitar 1:
D||-------------------------------------------------------------------|
A||-------------------------------------------------------------------|
F||------------------5-5-5-5-5-5-5-5-9-9-9-9-9-9-9-9-9-9-9-9-9-9-9-9--|
C||--7-7-7-7-7-7-7-7-3-3-3-3-3-3-3-3-7-7-7-7-7-7-7-7-7-7-7-7-7-7-7-7--|
G||--5-5-5-5-5-5-5-5--------------------------------------------------|
C||-------------------------------------------------------------------|


D||---------------------------------------------------------------------------|
A||---------------------------------------------------------------------------|
F||--10-10-10-10-10-10-10-10-9-9-9-9-9-9-9-9----------------------------------|
C||--8--8--8--8--8--8--8--8--7-7-7-7-7-7-7-7-5-5-5-5-5-5-5-5-5-5-5-5-5-5-5-5--| [x2]
G||------------------------------------------3-3-3-3-3-3-3-3-3-3-3-3-3-3-3-3--|
C||---------------------------------------------------------------------------|


Guitar 2:
D||-------------------------------------------------------------------|
A||--6-6-6-6-6-6-6-6-1-1-1-1-1-1-1-1-5-5-5-5-5-5-5-5-5-5-5-5-5-5-5-5--|
F||--7-7-7-7-7-7-7-7-2-2-2-2-2-2-2-2-5-5-5-5-5-5-5-5-5-5-5-5-5-5-5-5--|
C||-------------------------------------------------------------------|
G||-------------------------------------------------------------------|
C||-------------------------------------------------------------------|


D||-------------------------------------------------------------------------------------------|
A||------------------10-10-10-10-10-10-10-10-8--8--8--8--8--8--8--8--8--8--8--8--8--8--8--8---|
F||--5-5-5-5-5-5-5-5-10-10-10-10-10-10-10-10-10-10-10-10-10-10-10-10-10-10-10-10-10-10-10-10--|
C||--5-5-5-5-5-5-5-5--------------------------------------------------------------------------| [x2]
G||-------------------------------------------------------------------------------------------|
C||-------------------------------------------------------------------------------------------|


Guitar 3 (Dub):
D||-------------------------------------------------------------------|
A||-------------------------------------------------------------------|
F||--7-7-7-7-7-7-7-7--------------------------------------------------|
C||--7-7-7-7-7-7-7-7-3-3-3-3-3-3-3-3-7-7-7-7-7-7-7-7-7-7-7-7-7-7-7-7--|
G||--5-5-5-5-5-5-5-5-3-3-3-3-3-3-3-3-7-7-7-7-7-7-7-7-7-7-7-7-7-7-7-7--|
C||------------------3-3-3-3-3-3-3-3-7-7-7-7-7-7-7-7-7-7-7-7-7-7-7-7--|


D||-------------------------------------------------------------------|
A||-------------------------------------------------------------------|
F||------------------7-7-7-7-7-7-7-7-5-5-5-5-5-5-5-5-5-5-5-5-5-5-5-5--|
C||--5-5-5-5-5-5-5-5-7-7-7-7-7-7-7-7-5-5-5-5-5-5-5-5-5-5-5-5-5-5-5-5--| [x2]
G||--5-5-5-5-5-5-5-5-5-5-5-5-5-5-5-5-3-3-3-3-3-3-3-3-3-3-3-3-3-3-3-3--|
C||--5-5-5-5-5-5-5-5--------------------------------------------------|



[Bridge]
Guitar 1:
D||----------------------------------------------------------------------------------------|
A||----------------------------------------------------------------------------------------|
F||--10-10-10-10-10-10-10-7-7-7-7-5-5-5-5-12-12-12-12-10-10-10-10-14-14-14-14-10-10-10-10--|
C||--x--x--x--x--x--x--x--x-x-x-x-x-x-x-x-x--x--x--x--x--x--x--x--x--x--x--x--x--x--x--x---|
G||--8--8--8--8--8--8--8--5-5-5-5-3-3-3-3-10-10-10-10-8--8--8--8--12-12-12-12-8--8--8--8---|
C||----------------------------------------------------------------------------------------|


D||-----------------------------------------------------------------------------------|
A||-----------------------------------------------------------------------------------|
F||--10-10-10-10-10-10-10-7-7-7-7-5-5-5-5-12-12-12-12-10-10-10-10-9-9-9-9-9-10-10-10--|
C||--x--x--x--x--x--x--x--x-x-x-x-x-x-x-x-x--x--x--x--x--x--x--x--x-x-x-x-x-x--x--x---| [x2]
G||--8--8--8--8--8--8--8--5-5-5-5-3-3-3-3-10-10-10-10-8--8--8--8--7-7-7-7-7-8--8--8---|
C||-----------------------------------------------------------------------------------|


Guitar 2:
D||-----------------------------------------|----------------------------------------|
A||-----------------------------------------|----------------------------------------|
F||-----------------------------------------|----------------------------------------|
C||--12--------5--------10--------0---------|--12--------5--------10-----------------|
G||--8---------3--------7---------0---------|--8---------3--------7------------------|
C||--8---------3--------7---------0---------|--8---------3--------7------------------|


D||-----------------------------------------|----------------------------------------|
A||-----------------------------------------|----------------------------------------|
F||-----------------------------------------|----------------------------------------|
C||--12--------5--------10--------12----10--|--12--------5--------10-----------------|
G||--8---------3--------7---------12----10--|--8---------3--------7------------------|
C||--8---------3--------7---------12----10--|--8---------3--------7------------------|



Interlude
Guitar 1:
D||-----------------------------------------------------------------------|
A||-----------------------------------------------------------------------|
F||--10-10-10-10-10-10-10-10-9-9-9-9-9-9-9-9------------------------------|
C||--8--8--8--8--8--8--8--8--7-7-7-7-7-7-7-7-5-5-5-5-5-5-5-5-5-5-5-5-5-5--|
G||------------------------------------------3-3-3-3-3-3-3-3-3-3-3-3-3-3--|
C||-----------------------------------------------------------------------|


Guitar 2:
D||-------------------------------------------------------------------------------------|
A||------------------10-10-10-10-10-10-10-10-8--8--8--8--8--8--8--8--8--8--8--8--8--10--|
F||--5-5-5-5-5-5-5-5-10-10-10-10-10-10-10-10-10-10-10-10-10-10-10-10-10-10-10-10-10-10--|
C||--5-5-5-5-5-5-5-5--------------------------------------------------------------------|
G||-------------------------------------------------------------------------------------|
C||-------------------------------------------------------------------------------------|



[Chorus]
Guitar 1:
D||-------------------------------------------------------------------|
A||-------------------------------------------------------------------|
F||------------------5-5-5-5-5-5-5-5-9-9-9-9-9-9-9-9-9-9-9-9-9-9-9-9--|
C||--7-7-7-7-7-7-7-7-3-3-3-3-3-3-3-3-7-7-7-7-7-7-7-7-7-7-7-7-7-7-7-7--|
G||--5-5-5-5-5-5-5-5--------------------------------------------------|
C||-------------------------------------------------------------------|


D||---------------------------------------------------------------------------|
A||---------------------------------------------------------------------------|
F||--10-10-10-10-10-10-10-10-9-9-9-9-9-9-9-9----------------------------------|
C||--8--8--8--8--8--8--8--8--7-7-7-7-7-7-7-7-5-5-5-5-5-5-5-5-5-5-5-5-5-5-5-5--| [x2]
G||------------------------------------------3-3-3-3-3-3-3-3-3-3-3-3-3-3-3-3--|
C||---------------------------------------------------------------------------|


Guitar 2:
D||-------------------------------------------------------------------|
A||--6-6-6-6-6-6-6-6-1-1-1-1-1-1-1-1-5-5-5-5-5-5-5-5-5-5-5-5-5-5-5-5--|
F||--7-7-7-7-7-7-7-7-2-2-2-2-2-2-2-2-5-5-5-5-5-5-5-5-5-5-5-5-5-5-5-5--|
C||-------------------------------------------------------------------|
G||-------------------------------------------------------------------|
C||-------------------------------------------------------------------|


D||-------------------------------------------------------------------------------------------|
A||------------------10-10-10-10-10-10-10-10-8--8--8--8--8--8--8--8--8--8--8--8--8--8--8--8---|
F||--5-5-5-5-5-5-5-5-10-10-10-10-10-10-10-10-10-10-10-10-10-10-10-10-10-10-10-10-10-10-10-10--|
C||--5-5-5-5-5-5-5-5--------------------------------------------------------------------------| [x2]
G||-------------------------------------------------------------------------------------------|
C||-------------------------------------------------------------------------------------------|


Guitar 3 (Dub):
D||-------------------------------------------------------------------|
A||-------------------------------------------------------------------|
F||--7-7-7-7-7-7-7-7--------------------------------------------------|
C||--7-7-7-7-7-7-7-7-3-3-3-3-3-3-3-3-7-7-7-7-7-7-7-7-7-7-7-7-7-7-7-7--|
G||--5-5-5-5-5-5-5-5-3-3-3-3-3-3-3-3-7-7-7-7-7-7-7-7-7-7-7-7-7-7-7-7--|
C||------------------3-3-3-3-3-3-3-3-7-7-7-7-7-7-7-7-7-7-7-7-7-7-7-7--|


D||-------------------------------------------------------------------|
A||-------------------------------------------------------------------|
F||------------------7-7-7-7-7-7-7-7-5-5-5-5-5-5-5-5-5-5-5-5-5-5-5-5--|
C||--5-5-5-5-5-5-5-5-7-7-7-7-7-7-7-7-5-5-5-5-5-5-5-5-5-5-5-5-5-5-5-5--| [x2]
G||--5-5-5-5-5-5-5-5-5-5-5-5-5-5-5-5-3-3-3-3-3-3-3-3-3-3-3-3-3-3-3-3--|
C||--5-5-5-5-5-5-5-5--------------------------------------------------|



[Outro]
Guitar 1:
D||---------------------------------------------------------------------------|
A||---------------------------------------------------------------------------|
F||--10-10-10-10-10-10-10-10-9-9-9-9-9-9-9-9----------------------------------|
C||--8--8--8--8--8--8--8--8--7-7-7-7-7-7-7-7-5-5-5-5-5-5-5-5-5-5-5-5-5-5-5-5--|
G||------------------------------------------3-3-3-3-3-3-3-3-3-3-3-3-3-3-3-3--|
C||---------------------------------------------------------------------------|


D||-----------------------------------------------------------|
A||-----------------------------------------------------------|
F||--10-10-10-10-10-10-10-10-9-9-9-9-9-9-9-9------------------|
C||--8--8--8--8--8--8--8--8--7-7-7-7-7-7-7-7-5-5-5-5-5-5-5-5--|
G||------------------------------------------3-3-3-3-3-3-3-3--|
C||-----------------------------------------------------------|


Guitar 2:
D||---------------------------------------------------------------------------------------------------|
A||--13-13-13-13-13-13-13-13-13-13-13-13-13-13-13-13-13-13-13-13-13-13-13-13-13-13-13-13-11-11-10-10--|
F||--10-10-10-10-10-10-10-10-10-10-10-10-10-10-10-10-10-10-10-10-10-10-10-10-10-10-10-10-10-10-10-10--|
C||---------------------------------------------------------------------------------------------------|
G||---------------------------------------------------------------------------------------------------|
C||---------------------------------------------------------------------------------------------------|


D||---------------------------------------------------------------------------|
A||--13-13-13-13-13-13-13-13-13-13-13-13-13-13-13-13-13-13-13-13-13-13-13-13--|
F||--10-10-10-10-10-10-10-10-10-10-10-10-10-10-10-10-10-10-10-10-10-10-10-10--|
C||---------------------------------------------------------------------------|
G||---------------------------------------------------------------------------|
C||---------------------------------------------------------------------------|


Guitar 3 (Dub):
D||-------------------------------------------------------------------|
A||-------------------------------------------------------------------|
F||------------------7-7-7-7-7-7-7-7-5-5-5-5-5-5-5-5-5-5-5-5-5-5-5-5--|
C||--5-5-5-5-5-5-5-5-7-7-7-7-7-7-7-7-5-5-5-5-5-5-5-5-5-5-5-5-5-5-5-5--|
G||--5-5-5-5-5-5-5-5-5-5-5-5-5-5-5-5-3-3-3-3-3-3-3-3-3-3-3-3-3-3-3-3--|
C||--5-5-5-5-5-5-5-5--------------------------------------------------|


D||---------------------------------------------------|
A||---------------------------------------------------|
F||------------------7-7-7-7-7-7-7-7-5-5-5-5-5-5-5-5--|
C||--5-5-5-5-5-5-5-5-7-7-7-7-7-7-7-7-5-5-5-5-5-5-5-5--|
G||--5-5-5-5-5-5-5-5-5-5-5-5-5-5-5-5-3-3-3-3-3-3-3-3--|
C||--5-5-5-5-5-5-5-5----------------------------------|





____________________________________________________________________________________________________

                                         T09.   CUT AND RUN
____________________________________________________________________________________________________





Tuning: Drop B (B F# B E G# C#)
 
 
[Intro]
Guitar 1:
C#||-----------------------------------------|-------------------------------------------|
G#||-----------------------------------------|-------------------------------------------|
E ||-----------------------------------------|-------------------------------------------|
B ||-----------------------------------------|-------------------------------------------|
F#||-----------------------------------------|-------------------------------------------|
B ||--12-12-12-12-11-11-11----4-4-4-4-7-7-7--|--12-12-12-12-11-11-11----4-4-4-4-4-4-4-4--|


C#||-----------------------------------------|---------------------------------|
G#||-----------------------------------------|---------------------------------|
E ||-----------------------------------------|---------------------------------|
B ||-----------------------------------------|---------------------------------|
F#||-----------------------------------------|---------------------------------|
B ||--12-12-12-12-11-11-11----4-4-4-4-7-7-7--|--12-12-12-12-11-11-11----4-4-4--|


Guitar 1/2:
C#||--------------------|
G#||----------------'5--|
E ||--------------------|
B ||--x---x---x-x-x-----|
F#||--x---x---x-x-x-----|
B ||--x---x---x-x-x-----|



[Pre-Verse]
Guitar 1/2:
C#||------------------------------------------|-------------------------------------------|
G#||------------------------------------------|-------------------------------------------|
E ||------------------------------------------|-------------------------------------------|
B ||--12-12-12-12-11-11-11----4-4-4-4-7-7-x7--|--12-12-12-12-11-11-11----4-4-4-4-4-4-4-4--|
F#||--12-12-12-12-11-11-11----4-4-4-4-7-7-x7--|--12-12-12-12-11-11-11----4-4-4-4-4-4-4-4--|
B ||--12-12-12-12-11-11-11----4-4-4-4-7-7-x7--|--12-12-12-12-11-11-11----4-4-4-4-4-4-4-4--|


Guitar 1:
C#||------------------------------------------|-------------------------------------------|
G#||------------------------------------------|-------------------------------------------|
E ||------------------------------------------|-------------------------------------------|
B ||--12-12-12-12-11-11-11----4-4-4-4-7-7-x7--|--12-12-12-12-11-11-11---------------------|
F#||--12-12-12-12-11-11-11----4-4-4-4-7-7-x7--|--12-12-12-12-11-11-11---------------------|
B ||--12-12-12-12-11-11-11----4-4-4-4-7-7-x7--|--12-12-12-12-11-11-11----4-4-4-4-4-4-4-4--|


Guitar 2:
C#||------------------------------------------|-------------------------------------------|
G#||--9-9-9-9b10r9-9-9------9-9-9-9b10r9-9-7--|--9-9-9-9b10r9-9-9------9-9-9--------------|
E ||------------------------------------------|------------------------------7-7-7-6~-----|
B ||------------------------------------------|-------------------------------------------|
F#||------------------------------------------|-------------------------------------------|
B ||------------------------------------------|-------------------------------------------|



[Verse]
Guitar 1:
C#||----------------------------------------------------------------------------|
G#||----------------------------------------------------------------------------|
E ||----------------------------------------------------------------------------|
B ||----------------------------------------------------------------------------|
F#||----------------------------------------------------------------------------|
B ||--12-12-12-12--11--11----4-4-4-4--2--7----7-7-7-7--2--7----7-7-7-7--11--11--|


C#||---------------------------------------------------------------------------------|
G#||---------------------------------------------------------------------------------|
E ||---------------------------------------------------------------------------------|
B ||---------------------------------------------------------------------------------|
F#||---------------------------------------------------------------------------------|
B ||--12-12-12-12--11--11----4-4-4-4--2--7----7-7-7-7--2--7----7-7-7-7-7-11-11-11-11-|



[Chorus]
Guitar 1/2:
C#||------------------------------------------|-------------------------------------------|
G#||------------------------------------------|-------------------------------------------|
E ||------------------------------------------|-------------------------------------------|
B ||--12-12-12-12-11-11-11----4-4-4-4-7-7-x7--|--12-12-12-12-11-11-11----4-4-4-4-4-4-4-4--|
F#||--12-12-12-12-11-11-11----4-4-4-4-7-7-x7--|--12-12-12-12-11-11-11----4-4-4-4-4-4-4-4--|
B ||--12-12-12-12-11-11-11----4-4-4-4-7-7-x7--|--12-12-12-12-11-11-11----4-4-4-4-4-4-4-4--|


Guitar 1:
C#||------------------------------------------|-------------------------------------------|
G#||------------------------------------------|-------------------------------------------|
E ||------------------------------------------|-------------------------------------------|
B ||--12-12-12-12-11-11-11----4-4-4-4-7-7-x7--|--12-12-12-12-11-11-11----4-4-4-4----------|
F#||--12-12-12-12-11-11-11----4-4-4-4-7-7-x7--|--12-12-12-12-11-11-11----4-4-4-4----------|
B ||--12-12-12-12-11-11-11----4-4-4-4-7-7-x7--|--12-12-12-12-11-11-11----4-4-4-4----------|


Guitar 2:
C#||------------------------------------------|-------------------------------------------|
G#||--9-9-9-9b10r9-9-9------9-9-9-9b10r9-9-7--|--9-9-9-9b10r9-9-9------9-9-9--------------|
E ||------------------------------------------|------------------------------7-7-7-6~-----|
B ||------------------------------------------|-------------------------------------------|
F#||------------------------------------------|-------------------------------------------|
B ||------------------------------------------|-------------------------------------------|



[Verse]
Guitar 1:
C#||----------------------------------------------------------------------------|
G#||----------------------------------------------------------------------------|
E ||----------------------------------------------------------------------------|
B ||----------------------------------------------------------------------------|
F#||----------------------------------------------------------------------------|
B ||--12-12-12-12--11--11----4-4-4-4--2--7----7-7-7-7--2--7----7-7-7-7--11--11--|


C#||---------------------------------------------------------------------------------|
G#||---------------------------------------------------------------------------------|
E ||---------------------------------------------------------------------------------|
B ||---------------------------------------------------------------------------------|
F#||---------------------------------------------------------------------------------|
B ||--12-12-12-12--11--11----4-4-4-4--2--7----7-7-7-7--2--7----7-7-7-7-7-11-11-11-11-|



[Pre-Chorus]
Guitar 1:
C#||----------------------------------------------------------------------------|
G#||----------------------------------------------------------------------------|
E ||----------------------------------------------------------------------------|
B ||----------------------------------------------------------------------------|
F#||----------------------------------------------------------------------------|
B ||--12-12-12-12--11--11----4-4-4-4--2--7----7-7-7-7--2--7----7-7-7-7--11--11--|


C#||---------------------------------------------------------------------------------|
G#||---------------------------------------------------------------------------------|
E ||---------------------------------------------------------------------------------|
B ||---------------------------------------------------------------------------------|
F#||---------------------------------------------------------------------------------|
B ||--12-12-12-12--11--11----4-4-4-4--2--7----7-7-7-7--2--7----7-7-7-7-7-11-11-11-11-|


Guitar 2:
C#||----------------------------------------------------------------------------|
G#||----------------------------------------------------------------------------|
E ||----------------------------------------------------------------------------|
B ||--12-12-12-12--11--11----4-4-4-4--2--7----7-7-7-7--2--7----7-7-7-7--11--11--|
F#||----------------------------------------------------------------------------|
B ||----------------------------------------------------------------------------|


C#||---------------------------------------------------------------------------------|
G#||---------------------------------------------------------------------------------|
E ||---------------------------------------------------------------------------------|
B ||--12-12-12-12--11--11----4-4-4-4--2--7----7-7-7-7--2--7----7-7-7-7-7-11-11-11-11-|
F#||---------------------------------------------------------------------------------|
B ||---------------------------------------------------------------------------------|



[Chorus]
Guitar 1/2:
C#||------------------------------------------|-------------------------------------------|
G#||------------------------------------------|-------------------------------------------|
E ||------------------------------------------|-------------------------------------------|
B ||--12-12-12-12-11-11-11----4-4-4-4-7-7-x7--|--12-12-12-12-11-11-11----4-4-4-4-4-4-4-4--|
F#||--12-12-12-12-11-11-11----4-4-4-4-7-7-x7--|--12-12-12-12-11-11-11----4-4-4-4-4-4-4-4--|
B ||--12-12-12-12-11-11-11----4-4-4-4-7-7-x7--|--12-12-12-12-11-11-11----4-4-4-4-4-4-4-4--|


Guitar 1:
C#||------------------------------------------|-------------------------------------------|
G#||------------------------------------------|-------------------------------------------|
E ||------------------------------------------|-------------------------------------------|
B ||--12-12-12-12-11-11-11----4-4-4-4-7-7-x7--|--12-12-12-12-11-11-11\-----------x-x-x-x--|
F#||--12-12-12-12-11-11-11----4-4-4-4-7-7-x7--|--12-12-12-12-11-11-11\-----------x-x-x-x--|
B ||--12-12-12-12-11-11-11----4-4-4-4-7-7-x7--|--12-12-12-12-11-11-11\-----------x-x-x-x--|


Guitar 2:
C#||------------------------------------------|-------------------------------------------|
G#||--9-9-9-9b10r9-9-9------9-9-9-9b10r9-9-7--|--9-9-9-9b10r9-9-9\------------------------|
E ||------------------------------------------|-------------------------------------------|
B ||------------------------------------------|----------------------------------x-x-x-x--|
F#||------------------------------------------|----------------------------------x-x-x-x--|
B ||------------------------------------------|----------------------------------x-x-x-x--|



[Bridge]
Guitar 1/2:
C#||-----------------------------------------------------|
G#||-----------------------------------------------------|
E ||-----------------------------------------------------|
B ||--0--0--0-----0-0--0--0--0--9--9--9--9-9--9--9--x-x--|
F#||--0--0--0-----0-0--0--0--0--9--9--9--9-9--9--9--x-x--|
B ||--0--0--0-----0-0--0--0--0--9--9--9--9-9--9--9--x-x--|


C#||---------------------------------------------------------------|
G#||---------------------------------------------------------------|
E ||---------------------------------------------------------------|
B ||--4--4--4--4-4----4-4----4--4--4--4--4--4-4--------------------|
F#||--4--4--4--4-4----4-4----4--4--4--4--4--4-4--------------------|
B ||--4--4--4--4-4----4-4----4--4--4--4--4--4-4--6-6---6--7--7--9--|


C#||----------------------------------------------|
G#||----------------------------------------------|
E ||----------------------------------------------|
B ||--0--0-0----0--0--0--9--9--9--9-9--9--9--x-x--|
F#||--0--0-0----0--0--0--9--9--9--9-9--9--9--x-x--|
B ||--0--0-0----0--0--0--9--9--9--9-9--9--9--x-x--|


C#||--------------------------------------------------------|
G#||--------------------------------------------------------|
E ||-----------11----11-------------13-13---13-13---13--14--|
B ||--4--4--4--x-----x-----4--4--4--x--x----x--x----x---x---|
F#||--4--4--4--9-----9-----4--4--4--11-11---11-11---11--12--|
B ||--4--4--4--------------4--4--4--------------------------|


C#||------------------------------------------------------|
G#||------------------------------------------------------|
E ||------------------------------------------------------|
B ||--0--0--0----0-0--0--0--0--9--9--9----9-9--9--9--x-x--|
F#||--0--0--0----0-0--0--0--0--9--9--9----9-9--9--9--x-x--|
B ||--0--0--0----0-0--0--0--0--9--9--9----9-9--9--9--x-x--|


C#||-------------------------------------------------------------|
G#||-------------------------------------------------------------|
E ||-------------------------------------------------------------|
B ||--4--4--4--4-4---4-4---4--4--7--7--7--7-7---7-7--7--7--------|
F#||--4--4--4--4-4---4-4---4--4--7--7--7--7-7---7-7--7--7--------|
B ||--4--4--4--4-4---4-4---4--4--7--7--7--7-7---7-7--7--7--7--9--|


C#||----------------------------------------------|
G#||----------------------------------------------|
E ||----------------------------------------------|
B ||--0--0-0----0--0--0--9--9--9--9-9--9--9--x-x--|
F#||--0--0-0----0--0--0--9--9--9--9-9--9--9--x-x--|
B ||--0--0-0----0--0--0--9--9--9--9-9--9--9--x-x--|


C#||--------------------------------------------------------|
G#||--------------------------------------------------------|
E ||-----------11----11-------------13-13---13-13---13--14--|
B ||--4--4--4--x-----x-----4--4--4--x--x----x--x----x---x---|
F#||--4--4--4--9-----9-----4--4--4--11-11---11-11---11--12--|
B ||--4--4--4--------------4--4--4--------------------------|



[Interlude]
Guitar 1:
C#||-----------------------------------------|-------------------------------------------|
G#||-----------------------------------------|-------------------------------------------|
E ||-----------------------------------------|-------------------------------------------|
B ||-----------------------------------------|-------------------------------------------|
F#||-----------------------------------------|-------------------------------------------|
B ||--12-12-12-12-11-11-11----4-4-4-4-7-7-7--|--12-12-12-12-11-11-11----4-4-4-4-4-4-4-4--|


Guitar 1/2:
C#||-----------------------------------------|-----------------------------------------|
G#||-----------------------------------------|-----------------------------------------|
E ||-----------------------------------------|-----------------------------------------|
B ||-----------------------------------------|-----------------------------------------|
F#||-----------------------------------------|-----------------------------------------|
B ||--12-12-12-12-11-11-11-11-4-4-4-4-7-7-7--|--12-12-12-12-11-11-11----4-4-4-4-4-4-4--|



[Chorus]
Guitar 1:                    (2)
C#||------------------------------------------|-------------------------------------------|
G#||------------------------------------------|-------------------------------------------|
E ||------------------------------------------|-------------------------------------------|
B ||--12-12-12-12-11-11-11----4-4-4-4-7-7-x7--|--12-12-12-12-11-11-11----4-4-4-4-4-4-4-4--|
F#||--12-12-12-12-11-11-11----4-4-4-4-7-7-x7--|--12-12-12-12-11-11-11----4-4-4-4-4-4-4-4--|
B ||--12-12-12-12-11-11-11----4-4-4-4-7-7-x7--|--12-12-12-12-11-11-11----4-4-4-4-4-4-4-4--|


Guitar 1:
C#||------------------------------------------|-------------------------------------------|
G#||------------------------------------------|-------------------------------------------|
E ||------------------------------------------|-------------------------------------------|
B ||--12-12-12-12-11-11-11----4-4-4-4-7-7-x7--|--12-12-12-12-11-11-11----4-4-4------------|
F#||--12-12-12-12-11-11-11----4-4-4-4-7-7-x7--|--12-12-12-12-11-11-11----4-4-4-\\pick\\---|
B ||--12-12-12-12-11-11-11----4-4-4-4-7-7-x7--|--12-12-12-12-11-11-11----4-4-4--\\slide\\-|


Guitar 2:
C#||------------------------------------------|-------------------------------------------|
G#||--9-9-9-9b10r9-9-9------9-9-9-9b10r9-9-7--|--9-9-9-9b10r9-9-9------9-9-9--------------|
E ||------------------------------------------|------------------------------7-7-7-6~-----|
B ||------------------------------------------|-------------------------------------------|
F#||------------------------------------------|-------------------------------------------|
B ||------------------------------------------|-------------------------------------------|



[Outro]
Guitar 1:
C#||-------------------------------------------|-------------------------------------------|
G#||-------------------------------------------|-------------------------------------------|
E ||-------------------------------------------|-------------------------------------------|
B ||--12-12-12-12-11-11-11-11-4-4-4-4-7-7-7-7--|--12-12-12-12-11-11-11-11-4-4-4-4-4-4-4-4--|
F#||--12-12-12-12-11-11-11-11-4-4-4-4-7-7-7-7--|--12-12-12-12-11-11-11-11-4-4-4-4-4-4-4-4--|
B ||--12-12-12-12-11-11-11-11-4-4-4-4-7-7-7-7--|--12-12-12-12-11-11-11-11-4-4-4-4-4-4-4-4--|


C#||-------------------------------------------|---------------------------------------|
G#||-------------------------------------------|---------------------------------------|
E ||-------------------------------------------|---------------------------------------|
B ||--12-12-12-12-11-11-11-11-4-4-4-4-7-7-7-7--|--12-12-12-12-11-11-11-11-4-4-4-4-4-4--|
F#||--12-12-12-12-11-11-11-11-4-4-4-4-7-7-7-7--|--12-12-12-12-11-11-11-11-4-4-4-4-4-4--|
B ||--12-12-12-12-11-11-11-11-4-4-4-4-7-7-7-7--|--12-12-12-12-11-11-11-11-4-4-4-4-4-4--|


Guitar 2:
C#||---------------------------------------------------|
G#||---------------------------------------------------|
E ||--14-14-14-14-13-13-13-13-11-11-11-11-14-14-14-14--|
B ||--x--x--x--x--x--x--x--x--x--x--x--x--x--x--x--x---|
F#||--12-12-12-12-11-11-11-11-9--9--9--9--12-12-12-12--|
B ||---------------------------------------------------|


C#||---------------------------------------------------|
G#||---------------------------------------------------|
E ||--14-14-14-14-13-13-13-13-11-11-11-11-11-11-11-11--|
B ||--x--x--x--x--x--x--x--x--x--x--x--x--x--x--x--x---|
F#||--12-12-12-12-11-11-11-11-9--9--9--9--9--9--9--9---|
B ||---------------------------------------------------|


C#||---------------------------------------------------|
G#||---------------------------------------------------|
E ||--14-14-14-14-13-13-13-13-11-11-11-11-14-14-14-14--|
B ||--x--x--x--x--x--x--x--x--x--x--x--x--x--x--x--x---|
F#||--12-12-12-12-11-11-11-11-9--9--9--9--12-12-12-12--|
B ||---------------------------------------------------|


C#||---------------------------------------------|
G#||---------------------------------------------|
E ||--14-14-14-14-13-13-13-13-11-11-11-11-11-11--|
B ||--x--x--x--x--x--x--x--x--x--x--x--x--x--x---|
F#||--12-12-12-12-11-11-11-11-9--9--9--9--9--9---|
B ||---------------------------------------------|





____________________________________________________________________________________________________

                                        T10.   SECRET'S SAFE
____________________________________________________________________________________________________





Tuning: D Tuning (D G C F A D)


[Intro]
Guitar 1:
D||------------------------------------------------|------------------------------------------------|
A||------------------------------------------------|------------------------------------------------|
F||------------------------------------------------|------------------------------------------------|
C||-------12/14------------------12----12----------|-------12/14------------------12----12----------|
G||----10-------14-12-10-12---10----10----10---10--|----10-------14-12-10-12---10----10----10---10--|
D||--0----------------------8----------------8-----|--0----------------------8----------------8-----|


D||------------------------------------------------|------------------------------------------------|
A||------------------------------------------------|------------------------------------------------|
F||------------------------------------------------|------------------------------------9-----------|
C||-------12/14------------------12----12----------|-------12/14------------------12------12----12--|
G||----10-------14-12-10-12---10----10----10---10--|----10-------14-12-10-12---10----10------10-----|
D||--0----------------------8----------------8-----|--0----------------------8----------------------|


D||------------------------------------------------|------------------------------------------------|
A||------------------------------------------------|------------------------------------------------|
F||------------------------------------------------|--------0---0-----------------0---0-------------|
C||-------12/14------------------12----12----------|------------------------------------------------|
G||----10-------14-12-10-12---10----10----10---10--|------9---9---9------9------9---9---9------9----|
D||--0----------------------8----------------8-----|--10-------------10-----10-------------10-------|



[Verse]
Guitar 1/2:
D||------------------------------------------------|------------------------------------------------|
A||------------------------------------------------|------------------------------------------------|
F||------------------------------------------------|------------------------------------9-----------|
C||-------12/14------------------12----12----------|-------12/14------------------12------12----12--|
G||----10-------14-12-10-12---10----10----10---10--|----10-------14-12-10-12---10----10------10-----|
D||--0----------------------8----------------8-----|--0----------------------8----------------------|


D||------------------------------------------------|------------------------------------------------|
A||------------------------------------------------|------------------------------------------------|
F||------------------------------------------------|--------0---0-----------------0----0------------|
C||-------12/14------------------12----12----------|------------------------------------------------|
G||----10-------14-12-10-12---10----10----10---10--|------9---9---9------9-----10---10---10----10---|
D||--0----------------------8----------------8-----|--10-------------10-----12--------------12------|


D||----------------------------|
A||----------------------------|
F||----------------------------|
C||--------9----9----10----12--|
G||-----10---10---10----10-----|
D||--8-------------------------|



[Chorus]
Guitar 1:
D||-------------------------------------------------------------------------------------|
A||-------------------------------------------------------------------------------------|
F||--12----12-12-12----12---14-14----14-14-14-14-12----12-12-12----12---7-7----7-7-7-7--|
C||--x-----x--x--x-----x----x--x-----x--x--x--x--x-----x--x--x-----x----x-x----x-x-x-x--|
G||--10----10-10-10----10---12-12----12-12-12-12-10----10-10-10----10---5-5----5-5-5-5--|
D||-------------------------------------------------------------------------------------|


D||-------------------------------------------------------------------------------------|
A||-------------------------------------------------------------------------------------|
F||--12----12-12-12----12---14-14----14-14-14-14-12----12-12-12----12---7-7----7-7-7-7--|
C||--x-----x--x--x-----x----x--x-----x--x--x--x--x-----x--x--x-----x----x-x----x-x-x-x--|
G||--10----10-10-10----10---12-12----12-12-12-12-10----10-10-10----10---5-5----5-5-5-5--|
D||-------------------------------------------------------------------------------------|


D||---------------------------------------------------|
A||---------------------------------------------------|
F||--12-12-12-12-19-19-19-19-14-14-14-14-19-19-19-19--|
C||--x--x--x--x--x--x--x--x--x--x--x--x--x--x--x--x---|
G||--10-10-10-10-17-17-17-17-12-12-12-12-17-17-17-17--|
D||---------------------------------------------------|


D||---------------------------------------------------|
A||---------------------------------------------------|
F||--16-16-16-16-16-16-16-16-19-19-19-19-19-19-19-19--|
C||--x--x--x--x--x--x--x--x--x--x--x--x--x--x--x--x---|
G||--14-14-14-14-14-14-14-14-17-17-17-17-17-17-17-17--|
D||---------------------------------------------------|


D||--------------------------------------------------|
A||--------------------------------------------------|
F||--12----12-12-12----12---14-14----14-14-14-19-16--|
C||--x-----x--x--x-----x----x--x-----x--x--x--x--x---|
G||--10----10-10-10----10---12-12----12-12-12-17-14--|
D||--------------------------------------------------|


Guitar 2:
D||-----------------------------------------------------------------------------------|
A||-----------------------------------------------------------------------------------|
F||-----------------------------------------------------------------------------------|
C||--12----12-12-12----12----12-12----12-12-12-12-2----2-2-2----2----5-5----5-5-5-5---|
G||--10----10-10-10----10----12-12----12-12-12-12-2----2-2-2----2----5-5----5-5-5-5---|
D||--8-----8--8--8-----8-----10-10----10-10-10-10-0----0-0-0----0----3-3----3-3-3-3---|


D||-----------------------------------------------------------------------------------|
A||-----------------------------------------------------------------------------------|
F||-----------------------------------------------------------------------------------|
C||--12----12-12-12----12----12-12----12-12-12-12-2----2-2-2----2----5-5----5-5-5-5---|
G||--10----10-10-10----10----12-12----12-12-12-12-2----2-2-2----2----5-5----5-5-5-5---|
D||--8-----8--8--8-----8-----10-10----10-10-10-10-0----0-0-0----0----3-3----3-3-3-3---|


D||-----------------------------------------------------------------------------------|
A||-----------------------------------------------------------------------------------|
F||-----------------------------------------------------------------------------------|
C||--12-12-12-12-12-12-12-12-12-12-12-12-12-12-12-12-2-2-2-2-2-2-2-2-5-5-5-5-5-5-5-5--|
G||--10-10-10-10-10-10-10-10-12-12-12-12-12-12-12-12-2-2-2-2-2-2-2-2-5-5-5-5-5-5-5-5--|
D||--8--8--8--8--8--8--8--8--10-10-10-10-10-10-10-10-0-0-0-0-0-0-0-0-3-3-3-3-3-3-3-3--|


D||--------------------------------------------------|
A||--------------------------------------------------|
F||--------------------------------------------------|
C||--12----12-12-12----12----12-12----12-12-12-12-2--|
G||--10----10-10-10----10----12-12----12-12-12-12-2--|
D||--8-----8--8--8-----8-----10-10----10-10-10-10-0--|


Guitar 3:
D||-----------|
A||--8---/15--|
F||-----------|
C||-----------|
G||-----------|
D||-----------|



[Verse]
Guitar 1/2:
D||------------------------------------------------|------------------------------------------------|
A||------------------------------------------------|------------------------------------------------|
F||------------------------------------------------|------------------------------------9-----------|
C||-------12/14------------------12----12----------|-------12/14------------------12------12----12--|
G||----10-------14-12-10-12---10----10----10---10--|----10-------14-12-10-12---10----10------10-----|
D||--0----------------------8----------------8-----|--0----------------------8----------------------|


D||------------------------------------------------|------------------------------------------------|
A||------------------------------------------------|------------------------------------------------|
F||------------------------------------------------|--------0---0-----------------0---0-------------|
C||-------12/14------------------12----12----------|------------------------------------------------|
G||----10-------14-12-10-12---10----10----10---10--|------9---9---9------9------9---9---9------9----|
D||--0----------------------8----------------8-----|--10-------------10-----10-------------10-------|


D||------------------------------------------------|------------------------------------------------|
A||------------------------------------------------|------------------------------------------------|
F||------------------------------------------------|------------------------------------9-----------|
C||-------12/14------------------12----12----------|-------12/14------------------12------12----12--|
G||----10-------14-12-10-12---10----10----10---10--|----10-------14-12-10-12---10----10------10-----|
D||--0----------------------8----------------8-----|--0----------------------8----------------------|


D||------------------------------------------------|------------------------------------------------|
A||------------------------------------------------|------------------------------------------------|
F||------------------------------------------------|--------0---0-----------------0----0------------|
C||-------12/14------------------12----12----------|------------------------------------------------|
G||----10-------14-12-10-12---10----10----10---10--|------9---9---9------9-----10---10---10----10---|
D||--0----------------------8----------------8-----|--10-------------10-----12--------------12------|


D||----------------------------|
A||----------------------------|
F||----------------------------|
C||--------9----9----10----12--|
G||-----10---10---10----10-----|
D||--8-------------------------|



[Chorus]
Guitar 1:
D||-------------------------------------------------------------------------------------|
A||-------------------------------------------------------------------------------------|
F||--12----12-12-12----12---14-14----14-14-14-14-12----12-12-12----12---7-7----7-7-7-7--|
C||--x-----x--x--x-----x----x--x-----x--x--x--x--x-----x--x--x-----x----x-x----x-x-x-x--|
G||--10----10-10-10----10---12-12----12-12-12-12-10----10-10-10----10---5-5----5-5-5-5--|
D||-------------------------------------------------------------------------------------|


D||-------------------------------------------------------------------------------------|
A||-------------------------------------------------------------------------------------|
F||--12----12-12-12----12---14-14----14-14-14-14-12----12-12-12----12---7-7----7-7-7-7--|
C||--x-----x--x--x-----x----x--x-----x--x--x--x--x-----x--x--x-----x----x-x----x-x-x-x--|
G||--10----10-10-10----10---12-12----12-12-12-12-10----10-10-10----10---5-5----5-5-5-5--|
D||-------------------------------------------------------------------------------------|


D||---------------------------------------------------|
A||---------------------------------------------------|
F||--12-12-12-12-19-19-19-19-14-14-14-14-19-19-19-19--|
C||--x--x--x--x--x--x--x--x--x--x--x--x--x--x--x--x---|
G||--10-10-10-10-17-17-17-17-12-12-12-12-17-17-17-17--|
D||---------------------------------------------------|


D||---------------------------------------------------|
A||---------------------------------------------------|
F||--16-16-16-16-16-16-16-16-19-19-19-19-19-19-19-19--|
C||--x--x--x--x--x--x--x--x--x--x--x--x--x--x--x--x---|
G||--14-14-14-14-14-14-14-14-17-17-17-17-17-17-17-17--|
D||---------------------------------------------------|


D||-----------------------------------------------|
A||-----------------------------------------------|
F||--12----12-12-12----12---14-14----14-14-14-19--|
C||--x-----x--x--x-----x----x--x-----x--x--x--x---|
G||--10----10-10-10----10---12-12----12-12-12-17--|
D||-----------------------------------------------|


Guitar 2:
D||-----------------------------------------------------------------------------------|
A||-----------------------------------------------------------------------------------|
F||-----------------------------------------------------------------------------------|
C||--12----12-12-12----12----12-12----12-12-12-12-2----2-2-2----2----5-5----5-5-5-5---|
G||--10----10-10-10----10----12-12----12-12-12-12-2----2-2-2----2----5-5----5-5-5-5---|
D||--8-----8--8--8-----8-----10-10----10-10-10-10-0----0-0-0----0----3-3----3-3-3-3---|


D||-----------------------------------------------------------------------------------|
A||-----------------------------------------------------------------------------------|
F||-----------------------------------------------------------------------------------|
C||--12----12-12-12----12----12-12----12-12-12-12-2----2-2-2----2----5-5----5-5-5-5---|
G||--10----10-10-10----10----12-12----12-12-12-12-2----2-2-2----2----5-5----5-5-5-5---|
D||--8-----8--8--8-----8-----10-10----10-10-10-10-0----0-0-0----0----3-3----3-3-3-3---|


D||-----------------------------------------------------------------------------------|
A||-----------------------------------------------------------------------------------|
F||-----------------------------------------------------------------------------------|
C||--12-12-12-12-12-12-12-12-12-12-12-12-12-12-12-12-2-2-2-2-2-2-2-2-5-5-5-5-5-5-5-5--|
G||--10-10-10-10-10-10-10-10-12-12-12-12-12-12-12-12-2-2-2-2-2-2-2-2-5-5-5-5-5-5-5-5--|
D||--8--8--8--8--8--8--8--8--10-10-10-10-10-10-10-10-0-0-0-0-0-0-0-0-3-3-3-3-3-3-3-3--|


D||------------------------------------------------|
A||------------------------------------------------|
F||------------------------------------------------|
C||--12----12-12-12----12----12-12----12-12-12-12--|
G||--10----10-10-10----10----12-12----12-12-12-12--|
D||--8-----8--8--8-----8-----10-10----10-10-10-10--|


Guitar 1:
D||------------------------------------------------------|
A||------------------------------------------------------|
F||------------------------------------------------------|
C||--2--2--2--2--2--2--2--2--2--2--2--2--2--x-x-x-x-x-x--|
G||--2--2--2--2--2--2--2--2--2--2--2--2--2--x-x-x-x-x-x--|
D||--0--0--0--0--0--0--0--0--0--0--0--0--0--x-x-x-x-x-x--|
     .  .  .  .  .  .  .  .  .  .  .


Guitar 2:
D||------------------------------------------------------|
A||------------------------------------------------------|
F||------------------------------------------------------|
C||--2--2--2--2--2--2--2--2--2--2--2--2--2--x-x-x-x------|
G||--2--2--2--2--2--2--2--2--2--2--2--2--2--x-x-x-x------|
D||--0--0--0--0--0--0--0--0--0--0--0--0--0--x-x-x-x-\\\--|
     .  .  .  .  .  .  .  .  .  .  .



[Bridge]
Guitar 1:
D||-----------------------------------|-----------------------------------|
A||-----------------------------------|-----------------------------------|
F||-----------------------------------|-----------------------------------|
C||--5-5-5-5-5-5-5-5-4-4-4-4-4-4------|--2-2-2-2-2-2-2-2-2-2-2-2-2-2-2-2--|
G||--5-5-5-5-5-5-5-5-5-5-5-5-5-5------|--2-2-2-2-2-2-2-2-2-2-2-2-2-2-2-2--|
D||--3-3-3-3-3-3-3-3-2-2-2-2-2-2-0-2--|--0-0-0-0-0-0-0-0-0-0-0-0-0-0-0-0--|


D||---------------------------------------------------------------------------------------------------|
A||---------------------------------------------------------------------------------------------------|
F||---------------------------------------------------------------------------------------------------|
C||--12-12-12-12-12-12-12-12-12-12-12-12-12-12-12-12-12-12-12-12-12-12-12-12-12-12-12-12-12-12-12-12--|
G||--10-10-10-10-10-10-10-10-10-10-10-10-10-10-10-10-12-12-12-12-12-12-12-12-12-12-12-12-12-12-12-12--|
D||--8--8--8--8--8--8--8--8--7--7--7--7--7--7--7--7--10-10-10-10-10-10-10-10-10-10-10-10-10-10-10-10--|


D||-----------------------------------|-----------------------------------|
A||-----------------------------------|-----------------------------------|
F||-----------------------------------|-----------------------------------|
C||--5-5-5-5-5-5-5-5-4-4-4-4-4-4-4-4--|--2-2-2-2-2-2-2-2-2-2-2-2-2-2-2-2--|
G||--5-5-5-5-5-5-5-5-5-5-5-5-5-5-5-5--|--2-2-2-2-2-2-2-2-2-2-2-2-2-2-2-2--|
D||--3-3-3-3-3-3-3-3-7-7-7-7-7-7-7-7--|--0-0-0-0-0-0-0-0-0-0-0-0-0-0-0-0--|


D||----------------------------------|
A||----------------------------------|
F||----------------------------------|
C||--12------------12------------12--|
G||--10------------10------------12--|
D||--8-------------7-------------10--|


Guitar 2:
D||-----------------------------------|-----------------------------------|
A||-----------------------------------|-----------------------------------|
F||--0-0-0-0-0-0-0-0-0-0-0-0-0-0-0-0--|------0-----0---0-----0-----0---0--|
C||--5-5-5-5-7/9-9-9-4-4-4-4-7/9-9-9--|--2-2---2-2---2---2-2---2-2---2----|
G||-----------------------------------|-----------------------------------|
D||-----------------------------------|-----------------------------------|


D||---------------------------------------------------------------------------|
A||---------------------------------------------------------------------------|
F||--0--0--0--0--0--0--0--0--0-0-0-0-0-0-0-0-0-0-0-0-0-0-0-0-0-0-0-0-0-0-0----|
C||--12-12-12-12-12-12-12-12-9-9-9-9-9-9-9-9-4-4-4-4-4-4-4-4-4-4-4-4-4-4-4/5--|
G||---------------------------------------------------------------------------|
D||---------------------------------------------------------------------------|


D||-----------------------------------|-------------------------------------|
A||-----------------------------------|-------------------------------------|
F||--0-0-0-0-0-0-0-0-0-0-0-0-0-0-0-0--|------0-----0---0-0-0-0-0-0-0-0--0---|
C||--5-5-5-5-7/9-9-9-4-4-4-4-7/9-9-9--|--2-2---2-2---2---2-2-7-7-9-9-12-12--|
G||-----------------------------------|-------------------------------------|
D||-----------------------------------|-------------------------------------|


D||--------------------------------|
A||--------------------------------|
F||--0-------------0------------0--|
C||--12------------9------------5--|
G||--------------------------------|
D||--------------------------------|



[Interlude]
Guitar 1:
D||------------------------------------------------|------------------------------------------------|
A||------------------------------------------------|------------------------------------------------|
F||------------------------------------------------|------------------------------------9-----------|
C||-------12/14------------------12----12----------|-------12/14------------------12------12----12--|
G||----10-------14-12-10-12---10----10----10---10--|----10-------14-12-10-12---10----10------10-----|
D||--0----------------------8----------------8-----|--0----------------------8----------------------|


D||------------------------------------------------|----------------------------|
A||------------------------------------------------|------------------------'7--|
F||------------------------------------------------|--------0---0-----------'7--|
C||-------12/14------------------12----12----------|------------------------'7--|
G||----10-------14-12-10-12---10----10----10---10--|------9---9---9------9------|
D||--0----------------------8----------------8-----|--10-------------10---------|



[Chorus / Outro]
Guitar 1:
D||-------------------------------------------------------------------------------------|
A||-------------------------------------------------------------------------------------|
F||--12----12-12-12----12---14-14----14-14-14-14-12----12-12-12----12---7-7----7-7-7-7--|
C||--x-----x--x--x-----x----x--x-----x--x--x--x--x-----x--x--x-----x----x-x----x-x-x-x--|
G||--10----10-10-10----10---12-12----12-12-12-12-10----10-10-10----10---5-5----5-5-5-5--|
D||-------------------------------------------------------------------------------------|


D||-------------------------------------------------------------------------------------|
A||-------------------------------------------------------------------------------------|
F||--12----12-12-12----12---14-14----14-14-14-14-12----12-12-12----12---7-7----7-7-7-7--|
C||--x-----x--x--x-----x----x--x-----x--x--x--x--x-----x--x--x-----x----x-x----x-x-x-x--|
G||--10----10-10-10----10---12-12----12-12-12-12-10----10-10-10----10---5-5----5-5-5-5--|
D||-------------------------------------------------------------------------------------|


D||---------------------------------------------------|
A||---------------------------------------------------|
F||--12-12-12-12-19-19-19-19-14-14-14-14-19-19-19-19--|
C||--x--x--x--x--x--x--x--x--x--x--x--x--x--x--x--x---|
G||--10-10-10-10-17-17-17-17-12-12-12-12-17-17-17-17--|
D||---------------------------------------------------|


D||---------------------------------------------------|
A||---------------------------------------------------|
F||--16-16-16-16-16-16-16-16-19-19-19-19-19-19-19-19--|
C||--x--x--x--x--x--x--x--x--x--x--x--x--x--x--x--x---|
G||--14-14-14-14-14-14-14-14-17-17-17-17-17-17-17-17--|
D||---------------------------------------------------|


D||-------------------------|
A||-------------------------|
F||--12-----------------11--|
C||--x------------------x---|
G||--10-----------------10--|
D||-------------------------|


Guitar 2:
D||-----------------------------------------------------------------------------------|
A||-----------------------------------------------------------------------------------|
F||-----------------------------------------------------------------------------------|
C||--12----12-12-12----12----12-12----12-12-12-12-2----2-2-2----2----5-5----5-5-5-5---|
G||--10----10-10-10----10----12-12----12-12-12-12-2----2-2-2----2----5-5----5-5-5-5---|
D||--8-----8--8--8-----8-----10-10----10-10-10-10-0----0-0-0----0----3-3----3-3-3-3---|


D||-----------------------------------------------------------------------------------|
A||-----------------------------------------------------------------------------------|
F||-----------------------------------------------------------------------------------|
C||--12----12-12-12----12----12-12----12-12-12-12-2----2-2-2----2----5-5----5-5-5-5---|
G||--10----10-10-10----10----12-12----12-12-12-12-2----2-2-2----2----5-5----5-5-5-5---|
D||--8-----8--8--8-----8-----10-10----10-10-10-10-0----0-0-0----0----3-3----3-3-3-3---|


D||-----------------------------------------------------------------------------------|
A||-----------------------------------------------------------------------------------|
F||-----------------------------------------------------------------------------------|
C||--12-12-12-12-12-12-12-12-12-12-12-12-12-12-12-12-2-2-2-2-2-2-2-2-5-5-5-5-5-5-5-5--|
G||--10-10-10-10-10-10-10-10-12-12-12-12-12-12-12-12-2-2-2-2-2-2-2-2-5-5-5-5-5-5-5-5--|
D||--8--8--8--8--8--8--8--8--10-10-10-10-10-10-10-10-0-0-0-0-0-0-0-0-3-3-3-3-3-3-3-3--|


D||-------------------------|
A||-------------------------|
F||-------------------------|
C||--12-----------------12--|
G||--10-----------------10--|
D||--8------------------10--|





____________________________________________________________________________________________________

                                           T11.   WHIPLASH
____________________________________________________________________________________________________





Tuning: Custom Tuning (B A D G B E)


[Intro / Verse]
Guitar 1:
E||-------------------------------|----------------------------------|
B||--------3--------------2----0--|----------------------------------|
G||--------------------2----------|----------------------------------|
D||-----4-------------------------|--------5--------------4-------2--|
A||--2--------------0-------------|-----7--------------5-------3-----|
B||-------------------------------|--5--------------3-------1--------|


E||-------------------------------|----------------------------------|
B||--------3--------------2----0--|-------------------------------2--|
G||--------------------2----------|----------------------------2-----|
D||-----4-------------------------|--------5--------------9----------|
A||--2--------------0-------------|-----7--------------10---0--------|
B||-------------------------------|--5--------------8----------------|


E||-------------------------------|----------------------------------|
B||--------3--------------2----0--|----------------------------------|
G||--------------------2----------|----------------------------------|
D||-----4-------------------------|--------5--------------4-------2--|
A||--2--------------0-------------|-----7--------------5-------3-----|
B||-------------------------------|--5--------------3-------1--------|


E||-------------------------------|----------------------------------------------------------|
B||--------3--------------2----0--|----------------------------------------------------------|
G||--------------------2----------|----------------------------------------------------------|
D||-----4-------------------------|--------5-------------------------------------------------|
A||--2--------------0-------------|-----7----------------------------------------------------|
B||-------------------------------|--5--------------8-8-8-8-8-8-8-8-10-10-10-10-10-10-10-10--|


Guitar 2:
E||-------------------------------|----------------------------------|
B||-------------------------------|----------------------------------|
G||-------------------------------|----------------------------------|
D||-------------------------------|----------------------------------|
A||-------------------------------|----------------------------------|
B||-------------------------------|----------------------------------|


E||-------------------------------|----------------------------------|
B||------------5---7----5---------|------------5---7----5------------|
G||------6---7--------------------|------6---7---------------6---7---|
D||--7----------------------------|--7-------------------------------|
A||-------------------------------|----------------------------------|
B||-------------------------------|----------------------------------|


E||-------------------------------|----------------------------------|
B||-------------------------------|----------------------------------|
G||-------------------------------|----------------------------------|
D||-------------------------------|----------------------------------|
A||-------------------------------|----------------------------------|
B||-------------------------------|----------------------------------|


E||-------------------------------|----------------------------------------------------------|
B||------------5---7----5---------|------------5---7----5---5-5-5-5-5-5-5-5------------------|
G||------6---7--------------------|------6---7------------------------------7-7-7-7-7-7-7-7--|
D||--7----------------------------|--7-------------------------------------------------------|
A||-------------------------------|----------------------------------------------------------|
B||-------------------------------|----------------------------------------------------------|



[Pre-Chorus]
Guitar 1:
E||-----------------------------------------------|-----------------------------------------------|
B||-----------------------------------------------|-----------------------------------------------|
G||-----------------------------------------------|-----------------------------------------------|
D||-----------------------------------------------|-----------------------------------------------|
A||-----------------------------------------------|-----------------------------------------------|
B||--12-12-12-12-12b13-0----0-12----0-12/13\12-0--|--12-12-12-12-12b13-0----0-12----0-12/13\12-0--|


E||-----------------------------------------------|-----------------------------------------------|
B||-----------------------------------------------|-----------------------------------------------|
G||-----------------------------------------------|-----------------------------------------------|
D||-----------------------------------------------|-----------------------------------------------|
A||-----------------------------------------------|-----------------------------------------------|
B||--12-12-12-12-12b13-0----0-12----0-12/13\12-0--|--12-12-12-12-12b13-0--------------------------|



[Chorus]
Guitar 1:
E||-----------------------------------------------------------------|
B||-----------------------------------------------------------------|
G||-----------------------------------------------------------------|
D||-----------------------------------------------------------------|
A||--10---10---10-10---10---10--10-9---7---7---7-7---7---7---7-5----|
B||--8----8----8--8----8----8---8--7---5---5---5-5---5---5---5-3----|


E||-----------------------------------------------------------|
B||-----------------------------------------------------------|
G||-----------------------------------------------------------|
D||-----------------------------------------------------------|
A||--5---2---2-2---2---2---5-5---5---2---2-2---2---2-9-9-9-9--|
B||--3---0---0-0---0---0---3-3---3---0---0-0---0---0-7-7-7-7--|


E||-----------------------------------------------------------------|
B||-----------------------------------------------------------------|
G||-----------------------------------------------------------------|
D||-----------------------------------------------------------------|
A||--10---10---10-10---10---10--10-9---7---7---7-7---7---7---7-5----|
B||--8----8----8--8----8----8---8--7---5---5---5-5---5---5---5-3----|


E||-----------------------------------------------------------|
B||-----------------------------------------------------------|
G||--------------------------------------------------------2--|
D||-----------------------------------------------------------|
A||--5---2---2-2---2---2---5-5---5---2---2-2---2---2-2h3h5----|
B||--3---0---0-0---0---0---3-3---3---0---0-0---0---0----------|


Guitar 2:
E||--5-5-5-5-5-5-5-5-5-5-5-5-5-2---2---2-2-2-2-2-2-2-2-2-2-2----|
B||--3-3-3-3-3-3-3-3-3-3-3-3-3-3---3---3-3-3-3-3-3-3-3-3-3-3-2--|
G||----------------------------------------------------------4--|
D||-------------------------------------------------------------|
A||-------------------------------------------------------------|
B||-------------------------------------------------------------|


E||-------------------------------------------------------------------|
B||--2---3-3-3-3-3-3-3-3-3-3-3-5---5---7-7-7-7-7-7-7-7-7-7-7-7-7-7-7--|
G||--4---4-4-4-4-4-4-4-4-4-4-4-7---7---7-7-7-7-7-7-7-7-7-7-7-7-7-7-7--|
D||-------------------------------------------------------------------|
A||-------------------------------------------------------------------|
B||-------------------------------------------------------------------|


E||--5-5-5-5-5-5-5-5-5-5-5-5-5-2---2---2-2-2-2-2-2-2-2-2-2-2----|
B||--3-3-3-3-3-3-3-3-3-3-3-3-3-3---3---3-3-3-3-3-3-3-3-3-3-3-2--|
G||----------------------------------------------------------4--|
D||-------------------------------------------------------------|
A||-------------------------------------------------------------|
B||-------------------------------------------------------------|


E||-------------------------------------------------------------------|
B||--2---3-3-3-3-3-3-3-3-3-3-3-5---5---7-7-7-7-7-7-7-7-7-7-7-7-5------|
G||--4---4-4-4-4-4-4-4-4-4-4-4-7---7---7-7-7-7-7-7-7-7-7-7-7-----7-6--|
D||-------------------------------------------------------------------|
A||-------------------------------------------------------------------|
B||-------------------------------------------------------------------|



[Verse]
Guitar 1:
E||-------------------------------|----------------------------------|
B||--------3--------------2----0--|----------------------------------|
G||--------------------2----------|----------------------------------|
D||-----4-------------------------|--------5--------------4-------2--|
A||--2--------------0-------------|-----7--------------5-------3-----|
B||-------------------------------|--5--------------3-------1--------|


E||-------------------------------|----------------------------------------------------------|
B||--------3--------------2----0--|----------------------------------------------------------|
G||--------------------2----------|----------------------------------------------------------|
D||-----4-------------------------|--------5-------------------------------------------------|
A||--2--------------0-------------|-----7----------------------------------------------------|
B||-------------------------------|--5--------------8-8-8-8-8-8-8-8-10-10-10-10-10-10-10-10--|


Guitar 2:
E||-------------------------------|----------------------------------|
B||-------------------------------|----------------------------------|
G||-------------------------------|----------------------------------|
D||-------------------------------|----------------------------------|
A||-------------------------------|----------------------------------|
B||-------------------------------|----------------------------------|


E||-------------------------------|----------------------------------------------------------|
B||------------5---7----5---------|------------5---7----5---5-5-5-5-5-5-5-5------------------|
G||------6---7--------------------|------6---7------------------------------7-7-7-7-7-7-7-7--|
D||--7----------------------------|--7-------------------------------------------------------|
A||-------------------------------|----------------------------------------------------------|
B||-------------------------------|----------------------------------------------------------|


Guitar 2 (Dub):
E||-------------------------------------------------------------------|
B||-------------------------------------------------------------------|
G||-------------------------------------------------------------------|
D||-------------------------------------------------------------------|
A||--2-2-2-2-2-2-2-2-2-2-2-2-2-2-2-2-0-0-0-0-0-0-0-0-0-0-0-0-0-0-0-0--|
B||-------------------------------------------------------------------|
     . . . . . . . . . . . . . . . . . . . . . . . . . . . . . . . .


S||-------------------------------------------------------------------|
B||-------------------------------------------------------------------|
G||-------------------------------------------------------------------|
D||-------------------------------------------------------------------|
A||-------------------------------------------------------------------|
B||--5-5-5-5-5-5-5-5-5-5-5-5-5-5-5-5-3-3-3-3-3-3-3-3-1-1-1-1-1-1-1-1--|
     . . . . . . . . . . . . . . . . . . . . . . . . . . . . . . . .


E||-------------------------------------------------------------------|
B||-------------------------------------------------------------------|
G||-------------------------------------------------------------------|
D||-------------------------------------------------------------------|
A||--2-2-2-2-2-2-2-2-2-2-2-2-2-2-2-2-0-0-0-0-0-0-0-0-0-0-0-0-0-0-0-0--|
B||-------------------------------------------------------------------|
     . . . . . . . . . . . . . . . . . . . . . . . . . . . . . . . .


S||-----------------------------------|
B||-----------------------------------|
G||-----------------------------------|
D||-----------------------------------|
A||-----------------------------------|
B||--5-5-5-5-5-5-5-5-5-5-5-5-5-5-5-5--|
     . . . . . . . . . . . . . . . .



[Pre-Chorus]
Guitar 1:
E||-----------------------------------------------|-----------------------------------------------|
B||-----------------------------------------------|-----------------------------------------------|
G||-----------------------------------------------|-----------------------------------------------|
D||-----------------------------------------------|-----------------------------------------------|
A||-----------------------------------------------|-----------------------------------------------|
B||--12-12-12-12-12b13-0----0-12----0-12/13\12-0--|--12-12-12-12-12b13-0----0-12----0-12/13\12-0--|


E||-----------------------------------------------|-----------------------------------------------|
B||-----------------------------------------------|-----------------------------------------------|
G||-----------------------------------------------|--------------------------------------------2--|
D||-----------------------------------------------|-----------------------------------------------|
A||-----------------------------------------------|--------------------------------------2h3h5----|
B||--12-12-12-12-12b13-0----0-12----0-12/13\12-0--|--12-12-12-12-12b13-0--------------------------|


Guitar 2:
E||-----------------------------------------------|------------------------------------------------|
B||-----------------------------------------------|------------------------------------------------|
G||-----------------------------------------------|------------------------------------------------|
D||-----------------------------------------------|------------------------------------------------|
A||--14\------------------------------------------|------------------------------------14-----14\--|
B||--12\------------------------------------------|------------------------------------12-----12\--|


S||-----------------------------------------------|------------------------------------------------|
B||-----------------------------------------------|------------------------------------------------|
G||-----------------------------------------------|------------------------------------------------|
D||-----------------------------------------------|------------------------------------------------|
A||-----------------------------------------------|------------------------------------------------|
B||-----------------------------------------------|------------------------------------------------|



[Chorus]
Guitar 1:
E||-----------------------------------------------------------------|
B||-----------------------------------------------------------------|
G||-----------------------------------------------------------------|
D||-----------------------------------------------------------------|
A||--10---10---10-10---10---10--10-9---7---7---7-7---7---7---7-5----|
B||--8----8----8--8----8----8---8--7---5---5---5-5---5---5---5-3----|


E||-----------------------------------------------------------|
B||-----------------------------------------------------------|
G||-----------------------------------------------------------|
D||-----------------------------------------------------------|
A||--5---2---2-2---2---2---5-5---5---2---2-2---2---2-9-9-9-9--|
B||--3---0---0-0---0---0---3-3---3---0---0-0---0---0-7-7-7-7--|


E||-----------------------------------------------------------------|
B||-----------------------------------------------------------------|
G||-----------------------------------------------------------------|
D||-----------------------------------------------------------------|
A||--10---10---10-10---10---10--10-9---7---7---7-7---7---7---7-5----|
B||--8----8----8--8----8----8---8--7---5---5---5-5---5---5---5-3----|


E||-------------------------------------------------|
B||-------------------------------------------------|
G||-------------------------------------------------|
D||----------------------------------------------5--|
A||--5---2---2-2---2---2---5-5---5---2---2-2---2-2--|
B||--3---0---0-0---0---0---3-3---3---0---0-0---0----|


Guitar 2:
E||--5-5-5-5-5-5-5-5-5-5-5-5-5-2---2---2-2-2-2-2-2-2-2-2-2-2----|
B||--3-3-3-3-3-3-3-3-3-3-3-3-3-3---3---3-3-3-3-3-3-3-3-3-3-3-2--|
G||----------------------------------------------------------4--|
D||-------------------------------------------------------------|
A||-------------------------------------------------------------|
B||-------------------------------------------------------------|


E||-------------------------------------------------------------------|
B||--2---3-3-3-3-3-3-3-3-3-3-3-5---5---7-7-7-7-7-7-7-7-7-7-7-7-7-7-7--|
G||--4---4-4-4-4-4-4-4-4-4-4-4-7---7---7-7-7-7-7-7-7-7-7-7-7-7-7-7-7--|
D||-------------------------------------------------------------------|
A||-------------------------------------------------------------------|
B||-------------------------------------------------------------------|


E||--5-5-5-5-5-5-5-5-5-5-5-5-5-2---2---2-2-2-2-2-2-2-2-2-2-2----|
B||--3-3-3-3-3-3-3-3-3-3-3-3-3-3---3---3-3-3-3-3-3-3-3-3-3-3-2--|
G||----------------------------------------------------------4--|
D||-------------------------------------------------------------|
A||-------------------------------------------------------------|
B||-------------------------------------------------------------|


E||---------------------------------------------------|
B||--2---3-3-3-3-3-3-3-3-3-3-3-5---5---7-7-7-7-7-7-7--|
G||--4---4-4-4-4-4-4-4-4-4-4-4-7---7---7-7-7-7-7-7-7--|
D||---------------------------------------------------|
A||---------------------------------------------------|
B||---------------------------------------------------|



[Bridge]
Guitar 1:
E||-------------------------------------|--------------------------------------|
B||-------------------------------------|--------------------------------------|
G||-------------------------------------|--------------------------------------|
D||-------------------------------------|--------------------------------------|
A||--10---10---10-10-----7--7--7--5--7--|--10---10---10-10-----9--9--9--7--9---|
B||--8----8----8--8------5--5--5--3--5--|--12---12---12-12-----7--7--7--5--7---|


E||-------------------------------------|---------------------------------------|
B||-------------------------------------|---------------------------------------|
G||-------------------------------------|----------------------4---4-4---4---4--|
D||-------------------------------------|----------------------4---4-4---4---4--|
A||--10---10---10-10-----7--7--7--5--7--|--2---2---2-2---------2---2-2---2---2--|
B||--8----8----8--8------5--5--5--3--5--|--0---0---0-0--------------------------|


Guitar 2:
E||-----------------------------------|------------------------------------|
B||--3-3-3-3-3-3-3-3-3-2-2-2-2-2-2-2--|--7-7-7-7-7-7-7-7-7-5-5-5-5-5-5-5-5-|
G||--4-4-4-4-4-4-4-4-4-4-4-4-4-4-4-4--|--7-7-7-7-7-7-7-7-7-7-7-7-7-7-7-7-7-|
D||-----------------------------------|------------------------------------|
A||-----------------------------------|------------------------------------|
B||-----------------------------------|------------------------------------|


E||-----------------------------------|-----------------------------------|
B||--3-3-3-3-3-3-3-3-3-2-2-2-2-2-2-2--|--7-7-7-7-7-7-7-7-7-7-7-7-7-7-7-7--|
G||--4-4-4-4-4-4-4-4-4-4-4-4-4-4-4-4--|--7-7-7-7-7-7-7-7-7-7-7-7-7-7-7-7--|
D||-----------------------------------|-----------------------------------|
A||-----------------------------------|-----------------------------------|
B||-----------------------------------|-----------------------------------|



Guitar 1:
E||-----------------------------------------------|-----------------------------------------------|
B||-----------------------------------------------|-----------------------------------------------|
G||-----------------------------------------------|-----------------------------------------------|
D||-----------------------------------------------|-----------------------------------------------|
A||-----------------------------------------------|-----------------------------------------------|
B||--12-12-12-12-12b13-0----0-12----0-12/13\12-0--|--12-12-12-12-12b13-0----0-12----0-12/13\12-0--|


E||-----------------------------------------------|-----------------------------------------------|
B||-----------------------------------------------|-----------------------------------------------|
G||-----------------------------------------------|-----------------------------------------------|
D||-----------------------------------------------|-----------------------------------------------|
A||-----------------------------------------------|-----------------------------------------------|
B||--12-12-12-12-12b13-0----0-12----0-12/13\12-0--|--12-12-12-12-12b13-0----3-5-7-8---------------|



[Breakdown]
Guitar 1/2:
E||--------------------------------------------|--------------------------------------------|
B||--------------------------------------------|--------------------------------------------|
G||--------------------------------------------|--------------------------------------------|
D||--------------------------------------------|--------------------------------------------|
A||--------------------------------------------|--------------------------------------------|
B||--12-12-12-12-12\-0------12---0-12/13\12-0--|--12-12-12-12-12\-0------12---0-12/13\12-0--|


E||--------------------------------------------|--------------------------------------------|
B||--------------------------------------------|--------------------------------------------|
G||--------------------------------------------|--------------------------------------------|
D||--------------------------------------------|--------------------------------------------|
A||--------------------------------------------|--------------------------------------------|
B||------------------0------12---0-12/13\12-0--|--12-12-12-12-12\-0------12---0-3-5-7-8-----|


E||--------------------------------------------|--------------------------------------------|
B||--------------------------------------------|--------------------------------------------|
G||--------------------------------------------|--------------------------------------------|
D||--------------------------------------------|--------------------------------------------|
A||--------------------------------------------|--------------------------------------------|
B||------------------0------12---0-12/13\12-0--|--12-12-12-12-12\-0------12---0-12/13\12-0--|


E||--------------------------------------------|--------------------------------------------|
B||--------------------------------------------|--------------------------------------------|
G||--------------------------------------------|--------------------------------------------|
D||--------------------------------------------|--------------------------------------------|
A||--------------------------------------------|--------------------------------------------|
B||------------------0------12---0-12/13\12-0--|--12-12-12-12-12\-0------12---0-3-5-7-8-----|


E||--------------------------|
B||--------------------------|
G||--------------------------|
D||--------------------------|
A||--2------5------9-----10--|
B||--0------3------7-----8---|



[Chorus]
Guitar 1:
E||-----------------------------------------------------------|
B||-----------------------------------------------------------|
G||-----------------------------------------------------------|
D||-----------------------------------------------------------|
A||------------------------------------------------------x-5--|
B||------------------------------------------------------x-3--|


Guitar 2:
E||--5-5-5-5-5-5-5-5-5-5-5-5-5-2---2---2-2-2-2-2-2-2-2-2-2-2--|
B||--3-3-3-3-3-3-3-3-3-3-3-3-3-3---3---3-3-3-3-3-3-3-3-3-3-3--|
G||-----------------------------------------------------------|
D||-----------------------------------------------------------|
A||-----------------------------------------------------------|
B||-----------------------------------------------------------|



Guitar 1:
E||-----------------------------------------------------------|
B||-----------------------------------------------------------|
G||-----------------------------------------------------------|
D||-----------------------------------------------------------|
A||--5---2---2-2---2---2---5-5---5---2---2-2---2---2-9-9-9-9--|
B||--3---0---0-0---0---0---3-3---3---0---0-0---0---0-7-7-7-7--|


E||----------------------------------------------------------------|
B||----------------------------------------------------------------|
G||----------------------------------------------------------------|
D||----------------------------------------------------------------|
A||--10---10---10-10---10---10---10-9---7---7---7-7---7---7---7-5--|
B||--8----8----8--8----8----8----8--7---5---5---5-5---5---5---5-3--|


E||-------------------------------------------------|
B||-------------------------------------------------|
G||-------------------------------------------------|
D||-------------------------------------------------|
A||--5---2---2-2---2---2---5-5---5---2---2-2-2-2-2--|
B||--3---0---0-0---0---0---3-3---3---0---0-0-0-0-0--|


Guitar 2:
E||--------------------------------------------------------------------------|
B||--2----2---3-3-3-3-3-3-3-3-3-3-3-5----5----7-7-7-7-7-7-7-7-7-7-7-7-7-7-7--|
G||--4----4---4-4-4-4-4-4-4-4-4-4-4-7----7----7-7-7-7-7-7-7-7-7-7-7-7-7-7-7--|
D||--------------------------------------------------------------------------|
A||--------------------------------------------------------------------------|
B||--------------------------------------------------------------------------|


E||--5-5-5-5-5-5-5-5-5-5-5-5-5-2---2---2-2-2-2-2-2-2-2-2-2-2----|
B||--3-3-3-3-3-3-3-3-3-3-3-3-3-3---3---3-3-3-3-3-3-3-3-3-3-3-2--|
G||----------------------------------------------------------4--|
D||-------------------------------------------------------------|
A||-------------------------------------------------------------|
B||-------------------------------------------------------------|


E||---------------------------------------------------|
B||--2---3-3-3-3-3-3-3-3-3-3-3-5---5---7-7-7-7-7-7-7--|
G||--4---4-4-4-4-4-4-4-4-4-4-4-7---7---7-7-7-7-7-7-7--|
D||---------------------------------------------------|
A||---------------------------------------------------|
B||---------------------------------------------------|



[Outro]
Guitar 1:
E||-------------------------------------|--------------------------------------|
B||-------------------------------------|--------------------------------------|
G||-------------------------------------|--------------------------------------|
D||-------------------------------------|--------------------------------------|
A||--10---10---10-10-----7--7--7--5--7--|--10---10---10-10-----9--9--9--7--9---|
B||--8----8----8--8------5--5--5--3--5--|--12---12---12-12-----7--7--7--5--7---|


E||-------------------------------------|---------------------------------------|
B||-------------------------------------|---------------------------------------|
G||-------------------------------------|----------------------4---4-4---4---4--|
D||-------------------------------------|----------------------4---4-4---4---4--|
A||--10---10---10-10-----7--7--7--5--7--|--2---2---2-2---------2---2-2---2---2--|
B||--8----8----8--8------5--5--5--3--5--|--0---0---0-0--------------------------|


Guitar 2:
E||-----------------------------------|------------------------------------|
B||--3-3-3-3-3-3-3-3-3-2-2-2-2-2-2-2--|--7-7-7-7-7-7-7-7-7-5-5-5-5-5-5-5-5-|
G||--4-4-4-4-4-4-4-4-4-4-4-4-4-4-4-4--|--7-7-7-7-7-7-7-7-7-7-7-7-7-7-7-7-7-|
D||-----------------------------------|------------------------------------|
A||-----------------------------------|------------------------------------|
B||-----------------------------------|------------------------------------|


E||-----------------------------------|-----------------------------------|
B||--3-3-3-3-3-3-3-3-3-2-2-2-2-2-2-2--|--7-7-7-7-7-7-7-7-7-7-7-7-7-7-7-7--|
G||--4-4-4-4-4-4-4-4-4-4-4-4-4-4-4-4--|--7-7-7-7-7-7-7-7-7-7-7-7-7-7-7-7--|
D||-----------------------------------|-----------------------------------|
A||-----------------------------------|-----------------------------------|
B||-----------------------------------|-----------------------------------|


Guitar 1:
E||-----------------------------------------------|----------------------------|
B||-----------------------------------------------|----------------------------|
G||-----------------------------------------------|----------------------------|
D||-----------------------------------------------|----------------------------|
A||-----------------------------------------------|----------------------------|
B||--12-12-12-12-12b13-0----0-12----0-12/13\12-0--|--12-12-12-12-12b13-0----0--|





____________________________________________________________________________________________________

                                           T12.   WAKE UP
____________________________________________________________________________________________________





Tuning: Custom Tuning (B A D G B E)


[Intro]
Guitar 1:
E||----------------------------------------------------------------------------------------------|
B||----------------------------------------------------------------------------------------------|
G||---------3----------------------3----------------------3----------------------3---------------|
D||----------------------------------------------------------------------------------------------| [x4]
A||------------6----------------------6----------------------4----------------------4------------|
B||--0----------------------0----------------------4----------------------4----------------------|



[Pre-Chorus]
Guitar 1:
E||-------------------------------------------------------------------|
B||-------------------------------------------------------------------|
G||-------------------------------------------------------------------|
D||-------------------------------------------------------------------|
A||-------------------------------------------------------------------|
B||--0---0---0---0---0---0---0---0---2---2---2---2---2---2---2---2----|
     .   .   .   .   .   .   .   .   .   .   .   .   .   .   .   .

E||-------------------------------------------------------------------|
B||-------------------------------------------------------------------|
G||-------------------------------------------------------------------|
D||-------------------------------------------------------------------|
A||-------------------------------------------------------------------|
B||--4---4---4---4---4---4---4---4---4---4---4---4---11--11--11--11\--|
     .   .   .   .   .   .   .   .   .   .   .   .   .   .   .   .


E||-------------------------------------------------------------------|
B||-------------------------------------------------------------------|
G||-------------------------------------------------------------------|
D||-------------------------------------------------------------------|
A||-------------------------------------------------------------------|
B||--0---0---0---0---0---0---0---0---2---2---2---2---2---2---2---2----|
     .   .   .   .   .   .   .   .   .   .   .   .   .   .   .   .

E||-------------------------------------------------------------------|
B||-------------------------------------------------------------------|
G||-------------------------------------------------------------------|
D||-------------------------------------------------------------------|
A||-------------------------------------------------------------------|
B||--4---4---4---4---4---4---4---4---4---4---4---4---4---4---4---4----|
     .   .   .   .   .   .   .   .   .   .   .   .   .   .   .   .



Guitar 2:
E||-------------------------------------------------------------------|
B||--4-------------------------------4-----------6--------------------|
G||-------------------------------------------------------------------|
D||-------------------------------------------------------------------|
A||-------------------------------------------------------------------|
B||-------------------------------------------------------------------|


E||-------------------------------------------------------------------|
B||--7-------------------------------7---------------2----------------|
G||-------------------------------------------------------------------|
D||-------------------------------------------------------------------|
A||-------------------------------------------------------------------|
B||-------------------------------------------------------------------|


E||-------------------------------------------------------------------|
B||--4-------------------------------4-----------6--------------------|
G||-------------------------------------------------------------------|
D||-------------------------------------------------------------------|
A||-------------------------------------------------------------------|
B||-------------------------------------------------------------------|


E||-------------------------------------------------------------------|
B||--7-------------------------------7--------------------------------|
G||-------------------------------------------------------------------|
D||-------------------------------------------------------------------|
A||-------------------------------------------------------------------|
B||-------------------------------------------------------------------|



[Verse]
Guitar 1:
E||---------------------------------------------------------------------------------------|
B||---------------------------------------------------------------------------------------|
G||--3----------------------3----------------------3----------------------3---------------|
D||---------------------------------------------------------------------------------------|
A||-----6----------------------6----------------------4----------------------4------------|
B||------------------0----------------------4----------------------4----------------------|


Guitar 2:
E||---------------------------------------------------------------------------------------|
B||---------------------------------------------------------------------------------------|
G||---------------------------------------------------------------------------------------|
D||---------------------------------------------------------------------------------------|
A||---------------------------------------------------------------------------------------|
B||--0--------------------------------0-2-7-4----------------------4-----------------6-7--|




Guitar 1:
E||----------------------------------------------------------------------------------------------|
B||----------------------------------------------------------------------------------------------|
G||---------3----------------------3----------------------3----------------------3---------------|
D||----------------------------------------------------------------------------------------------|
A||------------6----------------------6----------------------4----------------------4------------|
B||--0----------------------0---------------------------------------------4----------------------|


Guitar 2:
E||----------------------------------------------------------------------------------------------|
B||----------------------------------------------------------------------------------------------|
G||----------------------------------------------------------------------------------------------|
D||----------------------------------------------------------------------------------------------|
A||----------------------------------------------------------------------------------------------|
B||--0---------------------------------------0-2-7------4-----------------4----------------------|



[Pre-Chorus]
Guitar 1:
E||-------------------------------------------------------------------|
B||-------------------------------------------------------------------|
G||-------------------------------------------------------------------|
D||-------------------------------------------------------------------|
A||-------------------------------------------------------------------|
B||--0---0---0---0---0---0---0---0---2---2---2---2---2---2---2---2----|
     .   .   .   .   .   .   .   .   .   .   .   .   .   .   .   .

E||-------------------------------------------------------------------|
B||-------------------------------------------------------------------|
G||-------------------------------------------------------------------|
D||-------------------------------------------------------------------|
A||-------------------------------------------------------------------|
B||--4---4---4---4---4---4---4---4---4---4---4---4---11--11--11--11\--|
     .   .   .   .   .   .   .   .   .   .   .   .   .   .   .   .


E||-------------------------------------------------------------------|
B||-------------------------------------------------------------------|
G||-------------------------------------------------------------------|
D||-------------------------------------------------------------------|
A||-------------------------------------------------------------------|
B||--0---0---0---0---0---0---0---0---2---2---2---2---2---2---2---2----|
     .   .   .   .   .   .   .   .   .   .   .   .   .   .   .   .

E||-------------------------------------------------------------------|
B||-------------------------------------------------------------------|
G||-------------------------------------------------------------------|
D||-------------------------------------------------------------------|
A||-------------------------------------------------------------------|
B||--4---4---4---4---4---4---4---4---4---4---4---4---4---4---4---4----|
     .   .   .   .   .   .   .   .   .   .   .   .   .   .   .   .



Guitar 2:
E||-------------------------------------------------------------------|
B||--4-------------------------------4-----------6--------------------|
G||-------------------------------------------------------------------|
D||-------------------------------------------------------------------|
A||-------------------------------------------------------------------|
B||-------------------------------------------------------------------|


E||-------------------------------------------------------------------|
B||--7-------------------------------7---------------2----------------|
G||-------------------------------------------------------------------|
D||-------------------------------------------------------------------|
A||-------------------------------------------------------------------|
B||-------------------------------------------------------------------|


E||-------------------------------------------------------------------|
B||--4-------------------------------4-----------6--------------------|
G||-------------------------------------------------------------------|
D||-------------------------------------------------------------------|
A||-------------------------------------------------------------------|
B||-------------------------------------------------------------------|


E||-------------------------------------------------------------------|
B||--7-------------------------------7--------------------------------|
G||-------------------------------------------------------------------|
D||-------------------------------------------------------------------|
A||-------------------------------------------------------------------|
B||-------------------------------------------------------------------|



[Breakdown]
Guitar 1/2:
E||----------------------------------------------------------------------------------------------|
B||----------------------------------------------------------------------------------------------|
G||----------------------------------------------------------------------------------------------|
D||----------------------------------------------------------------------------------------------|
A||--2------2--2------------2------2--2------------6------6--6------------6------6--6------------|
B||--0------0--0------------0------0--0------------4------4--4------------4------4--4------------|


E||----------------------------------------------------------------------------------------------|
B||----------------------------------------------------------------------------------------------|
G||----------------------------------------------------------------------------------------------|
D||----------------------------------------------------------------------------------------------|
A||--2------2--2------------2------2--2------------6------6--6------------6------6---------------|
B||--0------0--0------------0------0--0------------4------4--4------------4------4---------------|



[Chorus]
Guitar 1:
E||-------------------------------------------------------------------------------------------------------|
B||-------------------------------------------------------------------------------------------------------|
G||-------------------------------------------------------------------------------------------------------|
D||-------------------------------------------------------------------------------------------------------|
A||--2--2--2--2--2--2--2--2--4--4--4--4--4--4--4--4--6--6--6--6--6--6--6--6--6--6--6--6--6/13-13-13---13--|
B||--0--0--0--0--0--0--0--0--2--2--2--2--2--2--2--2--4--4--4--4--4--4--4--4--4--4--4--4--4/11-11-11---11--|


E||---------------------------------------------------------------------------------------------------|
B||---------------------------------------------------------------------------------------------------|
G||---------------------------------------------------------------------------------------------------|
D||---------------------------------------------------------------------------------------------------|
A||--2--2--2--2--2--2--2--2--4--4--4--4--4--4--4--4--6--6--6--6--6--6--6--6--6--6--6--6--6-6-6-6---6--|
B||--0--0--0--0--0--0--0--0--2--2--2--2--2--2--2--2--4--4--4--4--4--4--4--4--4--4--4--4--4-4-4-4---4--|


E||-------------------------------------------------------------------------------------------------------|
B||-------------------------------------------------------------------------------------------------------|
G||-------------------------------------------------------------------------------------------------------|
D||-------------------------------------------------------------------------------------------------------|
A||--2--2--2--2--2--2--2--2--4--4--4--4--4--4--4--4--6--6--6--6--6--6--6--6--6--6--6--6--6/13-13-13---13--|
B||--0--0--0--0--0--0--0--0--2--2--2--2--2--2--2--2--4--4--4--4--4--4--4--4--4--4--4--4--4/11-11-11---11--|


E||-------------------------------------------------------------------------------------------------------|
B||-------------------------------------------------------------------------------------------------------|
G||-------------------------------------------------------------------------------------------------------|
D||-------------------------------------------------------------------------------------------------------|
A||--2--2--2--2--2--2--2--2--4--4--4--4--4--4--4--4--6--6--6--6--6--6--6--6--6--6--6--6--6-6-6-6-6-6-6-6--|
B||--0--0--0--0--0--0--0--0--2--2--2--2--2--2--2--2--4--4--4--4--4--4--4--4--4--4--4--4--4-4-4-4-4-4-4-4--|


Guitar 2:
E||-------------------------------------------------------------------|
B||--4-------------------------------4-----------6--------------------|
G||-------------------------------------------------------------------|
D||-------------------------------------------------------------------|
A||-------------------------------------------------------------------|
B||-------------------------------------------------------------------|


E||-------------------------------------------------------------------|
B||--7-------------------------------7---------------2----------------|
G||-------------------------------------------------------------------|
D||-------------------------------------------------------------------|
A||-------------------------------------------------------------------|
B||-------------------------------------------------------------------|


E||-------------------------------------------------------------------|
B||--4-------------------------------4-----------6--------------------|
G||-------------------------------------------------------------------|
D||-------------------------------------------------------------------|
A||-------------------------------------------------------------------|
B||-------------------------------------------------------------------|


E||-------------------------------------------------------------------|
B||--7-------------------------------7--------------------------------|
G||-------------------------------------------------------------------|
D||-------------------------------------------------------------------| [x2]
A||-------------------------------------------------------------------|
B||-------------------------------------------------------------------|



[Outro]
Guitar 1:
E||------------------------------------------------------------------------------------------------------|
B||---------0--------------------------------------------------------------------------------------------|
G||-----------------------------------3------------------------3------------------------3----------------|
D||------------4---------4-------------------------------------------------------------------------------|[x2]
A||-------------------------6------------4---------4/6------------6---------4/6------------6--------4/6--|
B||--0----------------0--------2----------------2-------4----------------4-------4------------4--4-------|


Guitar 2:
E||-------------------------------------------------------------------|
B||--4-------------------------------4-----------6--------------------|
G||-------------------------------------------------------------------|
D||-------------------------------------------------------------------|
A||-------------------------------------------------------------------|
B||-------------------------------------------------------------------|


E||-------------------------------------------------------------------|
B||--7-------------------------------7---------------2----------------|
G||-------------------------------------------------------------------|
D||-------------------------------------------------------------------|
A||-------------------------------------------------------------------|
B||-------------------------------------------------------------------|


E||-------------------------------------------------------------------|
B||--4-------------------------------4-----------6--------------------|
G||-------------------------------------------------------------------|
D||-------------------------------------------------------------------|
A||-------------------------------------------------------------------|
B||-------------------------------------------------------------------|


E||-------------------------------------------------------------------|
B||--7-------------------------------7--------------------------------|
G||-------------------------------------------------------------------|
D||-------------------------------------------------------------------| [x2]
A||-------------------------------------------------------------------|
B||-------------------------------------------------------------------|





*****************************
-Tablature Legend-

 h   hammer-on
 p   pull-off
 b   bend
 pb  pre-bend
 r   release bend
 ~   hold / vibrato
 .   palm mute
 /   slide up
 \   slide down
 *   pinch harmonic
 '   natural harmonic
 x   mute note
 T   tap

*****************************

            
            
Suggest correction
Creating personal tab
Creating personal tab
You can edit any tab online and save it as your Personal.

You can edit, replace or remove any tab part or add personal notes – all changes will be seen only by you.

Personal tabs can be accessed anytime from any device, even offline.
Learn more »
Give kudos to tab author, rate the tab!
1 2 3 4 5
comments
print report bad tab
3 comments total.
+1 reply
Kazuvocals 10 Jul 30, 2017 05:19 AM

thank you so much for this. This is one of my new favorite albums like ever and thanks to you i get to learn every song off of it. cheers.

0 reply
obnurse91 10 Aug 22, 2017 01:05 PM

Thanks for tabbing this out! sounds great. "Wake up" is my new favorite.

0 reply
randomperson10 10 Aug 28, 2017 06:07 PM

Thanks for giving us the custom tuning! I saw the documentary, but was kinda confused cuz they were 7 notes in the tuning.

guest
You may want to rate the tab now too:
select rating
Wanna post a correction for this tab? Suggest correction