Oops, an error
Loading. Please wait.

Defend You Tab

version 1
version 1

Whole song

Interactive

2,663 views 1 this week
8 commentsread comments
1 2 3 4 5
accurate
x 4
add to favorites
launch autoscroll
font size
0
reset
how to read this tab
guitar tuner
Tab Pro tools
  • play this tab
  • loop segment
  • change instrument
  • show fretboard
  • metronome
×
Best way to learn
"Defend You"
Autoscroll
slow
fast
+/-
esc
set tempo
stop
Contributor
Difficulty
intermediate
Ok I kinda got this tab from another site but I changed a few parts to make it better.
pretty accurate. If you have any questions or requests e-mail me. Thanks. I don't know 
other guitar, but here it is. Enjoy!


 Intro:

e--------------------------------|
B--------------------------------|
G--------------------------------|
D-xx-545-xx-545-xx-545-xx-545----|
A-xx-777-xx-777-xx-777-xx-777----|
E--------------------------------|

e--------------------------------|
B--------------------------------|
G--------------------------------|
D-5555-6666-5555-4444------------|
A-7777-7777-3333-2222------------|
E--------------------------------|

e--------------------------------|
B--------------------------------|
G--------------------------------|
D-xx-545-xx-545-xx-545-xx-545----|
A-xx-777-xx-777-xx-777-xx-777----|
E--------------------------------|

e--------------------------------|
B--------------------------------|
G--------------------------------|
D-5555-6666-5555-4444-5-4-5-7----|
A-7777-7777-3333-2222-3-2-3-5----|
E--------------------------------|

e--------------------------------|
B--------------------------------|
G--------------------------------|
D-xx-545-xx-545-xx-545-xx-545----|
A-xx-777-xx-777-xx-777-xx-777----|
E--------------------------------|

e--------------------------------|
B--------------------------------|
G--------------------------------|
D-5555-6666-5555-4444------------|
A-7777-7777-3333-2222------------|
E--------------------------------|


 Pre Chorus (the part I changed a bit):

e--------------------------------|
B--------------------------------|
G--------------------------------|
D--222-555-444-666---------------|
A--222-555-444-666---------------|
E--000-333-222-444---------------|
pm ... ... ... ...


 Chorus (I think this is right...probably the end part isn't) :

e--------------------------------|
B--------------------------------|
G-5>---------11-11-12-11-9-8-----|
D-5>--5>--9>-x--x--x--x--x-x-----|
A-3>--5>--9>-9--9--10-9--7-6-----|
E-----3>--7>---------------------|

e-------------------------|-------------|
B-------------------------|-------------|
G-5>----------------------|-------------|
D-5>--5>--9>--555-555-555-|-------------|
A-3>--5>--9>--555-555-555-|-------------|
E-----3>--7>--333-333-333-|-0h3p20203/5-|
pm            ..  ..  ..


Then you play the intro again then the pre chorus and chorus.


 Bridge:

e-----------------|-----------------------|
B-----------------|-----------------------|
G--0-----0---0--0-|------7-4--------------|
D---4-----4-------|---------------7-5-4-5-|
A-----------------|-----------------------|
E-0---0h5---8--7--|-0h5p0----0h5p0--------|

e---------------------------------------------------------|
B-8-7-10-9-8-7-10-7-----8-7-8-7-7/8-7-8-7-8-7-------------|
G-9-9-9--9-9-9-9--9-----9-9-9-9-9-9-9-9-9-9-9-------------|
D--------------------579----------------------22-55-44-55-|
A-------------------7-------------------------22-55-44-55-|
E---------------------------------------------00-33-22-33-|


 Then play the chorus again and end on...

D-2~--
A-2~--
E-0~--


And that should be all. Tabbed by Adam Newsome (my first tab!). Thanks Blake
for the original version.

Questions or comments -  adamn1ooo@hotmail.com   the "o"s are the letter "o". Thanks a
Silverstein rocks!
comments
print report bad tab
8 comments total. Showing first comments.
0 reply
HH_Emo_666 wrote on July 28 2006, 03:46 pm

hey man good tab but Silverstein is played in Drop-D

0 reply
fret13 wrote on July 28 2006, 06:09 pm

not necisarilly(spelling is defineatelty wrong) i mean Smashed Into Pieces isnt and already Dead isnt

0 reply
fret13 wrote on July 30 2006, 01:50 pm

^oops
wrong songs
Discovering the Waterfont isnt
thats about it other than this song

I want to post or [tab]
guest
You may want to rate the tab now too:
select rating
Please do not post tabs as comments. Select "correction" instead!