Oops, an error
Loading. Please wait.

Defend You Tab

version 3
version 3

Whole song

Interactive

289 views 1 this week
1 commentread comment
1 2 3 4 5
please rate
add to favorites
launch autoscroll
font size
0
reset
how to read this tab
guitar tuner
Tab Pro tools
  • play this tab
  • loop segment
  • change instrument
  • show fretboard
  • metronome
×
Best way to learn
"Defend You"
Autoscroll
slow
fast
+/-
esc
set tempo
stop
Contributor
Difficulty
novice
Silverstein
Defend You
Discovering the Waterfront

Standard Tuning

* - Palm Mute
 - Natural Harmonics
h   Hammer-on
p   Pull-off

The other tabs I saw for this song were not terrible, but there are two guitars 
and multiple fills in this song. It starts to sound a little muddled trying 
to play with just one guitar in some spots.


Intro  Guitar 1 
e---------------|
B---------------|
G---------------|
D---545----545--|
A-2-777-22-777--|
E-0-----00------|
  *     **

Verse A  Guitars 1 and 2
e--------------------------------|
B--------------------------------|
G---------------(5)-(4)-(3)-(2)--|
D----545----545------------------|
A-22-777-22-777-(3)-(3)-(3)-(2)--|
E-00-----00----------------------|
  **     **

Verse B  Guitar 1
e---------------------------------------------------------|
B---------------------------------------(10)-7-8-10-------|
G-----------------------------(7)--(7)--------------------|
D---545----545----545-----545-(10)-(10)-------------------|
A-2-777-22-777-22-777-22--777-----------(10)--------------|
E-0-----00-----00-----00------(8)--(8)--------------------|
  *     **     **     **

Verse B  Guitar 2
e---------------------------------------------------------|
B---------------------------------------(10)--------------|
G-----------------------------(7)--(7)--------------------|
D---545----545----545-----545-(10)-(10)-------------------|
A-2-777-22-777-22-777-22--777-----------(10)-6-7-9--------|
E-0-----00-----00-----00------(8)--(8)--------------------|
  *     **     **     **

Verse C  Guitar 1
e---------------------------------------------------------|
B-----------------------------8-8-7---8-8-7---8-8-7-------|
G-----------------------------------9-------9-------9-8~~-|
D---545----545----545-----545-----------------------------|
A-2-777-22-777-22-777-22--777-----------------------------|
E-0-----00-----00-----00----------------------------------|
  *     **     **     **

Verse C  Guitar 2
e---------------------------------------------------------|
B---------------------------------------------------------|
G-----------------------------(5)-----(4)-----(3)-----(2)-|
D---545----545----545-----545-----------------------------|
A-2-777-22-777-22-777-22--777-(3)-----(3)-----(3)-----(2)-|
E-0-----00-----00-----00----------------------------------|
  *     **     **     **

Verse D  Guitars 1 and 2
e---------------------------------------------------------|
B---------------------------------------(10)-(10)---------|
G-----------------------------(7)--(7)--------------------|
D---545----545----545-----545-(10)-(10)-------------------|
A-2-777-22-777-22-777-22--777-----------(10)-(10)---------|
E-0-----00-----00-----00------(8)--(8)--------------------|
  *     **     **     **

Prechorus  Guitars 1 and 2
e-------------------|
B-------------------|
G-------------------|
D-------------------|
A-2225554447777779--|
E-0003332225555557--|
  ************

Chorus 1  Guitar 1
e-------------------------------------------|
B----------8888--------------7h8-7----------|
G-77777777-----9999-77777777-------9-8------|
D-55555555-55555555-55555555----------------|
A-33333333-77777777-33333333---------9------|
E-------------------------------------------|

Guitar 2
e-------------------------------------------|
B----------8888-----------------------------|
G-77777777-----9999-77777777---------4------|
D-55555555-55555555-55555555-4h5-4-2--------|
A-33333333-77777777-33333333---------2------|
E-------------------------------------------|

Guitars 1 and 2
e------------------------------------------------------|
B----------8888----------------------------------------|
G-77777777-----9999-5555-------------------------------|
D-55555555-55555555-5555-5555-777777777777777777777777-|
A-33333333-77777777-3333-5555-777777777777777777777777-|
E------------------------3333-555555555555555555555555-|
                              ** *** *** *** *********

Guitar 1
e-------------------|
B-------------------|
G-4h5p4-------------|
D-------5-4---------|
A-----------7-5-----|
E---------------8-7-|
* * * * * *

Chorus 2 Ending  Guitars 1 and 2
e-------------------------------------|
B-------------------------------------|
G------------------55555555-77777777--|
D-7777777777777777-55555555-77777777--|
A-7777777777777777-33333333-55555555--|
E-5555555555555555--------------------|
  ** *** *** *** * ** *** * ** *** *

Bridge A  Guitars 1 and 2
e----------------------------------------|
B--------------------------------<5>-----|
G---0---0---0------<5>--------<5>---<5>--|
D--5---5---5----<5>---<5>--<5>-----------|
A-------------3-----------2--------------|
E-0---3---2------------------------------|

Bridge B
e-------------------------------------------|
B------3------------------3--------------0--|
G--4-----4-----4-0-----4-----4-----4-0------|
D----5--------2---2------5--------2---2-----|
A-3----------2-----2--3----------2-----2----|
E-----------0-------------------0-----------|

e-------------------------------------|
B-------------------------------------|
G-------------------------------------|
D-5555555555555555555555555555555-----|
A-3333333333333333333333333333333-----|
E-------------------------------------|
  *******************************
                                         

Bridge C  Guitar 1
e-------------------------------------|
B-------------------------------------|
G-------------------------------------|
D-2222222222222222-55555555-55555555--|
A-2222222222222222-33333333-22222222--|
E-0000000000000000--------------------|

Guitar 2
e-------------------------------------|
B-------------------------------------|
G-------------------------------------|
D---10-9-7-9-10-12--------------------|
A-7-----------------7-10---10-9-7-----|
E------------------8-----8--------10--|

e----------------------------------------|
B----------------------------------------|
G----------------------------------------|
D-12-10-9-7-9-10-9-7---------------------|
A----------------------7-10---10-9-7-----|
E--------------------8------8--------10--|

e---------------------------------------------------------|
B---------------------------------------------------------|
G-9-7-9-7-9-7------7--------------------------------------|
D-------------10-9---10-9-7-9-10-9-7---------------7------|
A------------------------------------7-10-9-7-9-10--------|
E---------------------------------------------------------|
Prechorus 2  Guitars 1 and 2
e------------------------------|
B------------------------------|
G-9-9-12-12-11-11-14-14-14-16--|
D------------------------------|
A-7-7-10-10-9--9--12-12-12-14--|
E------------------------------|
comments
We did not receive enough feedback on this tab! Please rate:
print report bad tab
1 2 3 4 5
1 comment total.
0 reply
maximum_power wrote on June 18 2011, 05:09 pm

Chorus should be like this

e-------------------------------------------|
B----------8888-----------------------------|
G-77777777-----9999-77777777----------------|
D-55555555-55557777-55555555----------------|
A-33333333-77775555-33333333----------------|
E-------------------------------------------|

I want to post or [tab]
guest
You may want to rate the tab now too:
select rating
Please do not post tabs as comments. Select "correction" instead!