Oops, an error
Loading. Please wait.

Demons tab

64 views 1 this week
no commentswrite comment
1 2 3 4 5
3 more votes to show rating
add to favorites
×
Save as Personal and add changes to this tab that will be seen only by you. Learn more ›
×
You can save this tab as Personal to edit and correct it or add notes. All changes will be seen only by you. Learn more »
launch autoscroll
font size
0
reset
how to read this tab
guitar tuner
edit
Autoscroll
slow
fast
+/-
esc
set tempo
stop
Tabbed by: Joshua Garcia (joshuag523@aol.com)

Tabs for the song: Demons by Silverstein
Please rate and let me know if you have any corrections. Thank you.


Tuning: Drop C (C G C F A D)


[Intro]
Guitar 1/2:
D||----------------------------------------|-------------------------------------------------|
A||----------------------------------------|-------------------------------------------------|
F||----------------------------------------|-------------------------------------------------|
C||--2--3--0------------2--3--0------------|--2--3--0------------5--5--3--2------------------|
G||--1--1--1------------x--x--x------------|--1--1--1------------3--3--3--3------------//\\--|
C||---------------------0--0--0------------|-------------------------------------------//\\--|



[Pre-Verse]
Guitar 1:
D||----------------------------------------|----------------------------------------------------------|
A||----------------------------------------|----------------------------------------------------------|
F||----------------------------------------|----------------------------------------------------------|
C||--2--3--0------------2--3--0------------|--2--3--0------------5--5--3--2---------------------------|
G||--1--1--1------------x--x--x------------|--1--1--1------------3--3--3--3---------------\\pick-\\---|
C||---------------------0--0--0------------|-----------------------------------------------\\slide\\--|


Guitar 2:
D||----------------------------------------|----------------------------------------------------------|
A||----------------------------------------|----------------------------------------------------------|
F||--3--------9--10--7-----------9--10--7--|--3--------9--10--7--------------7--7--10--9--------------|
C||--x--------x--x---x-----------x--x---x--|--x--------x--x---x--------------x--x--x---x--------------|
G||--1--------7--8---5-----------7--8---5--|--1--------7--8---5--------------5--5--8---7--\\pick-\\---|
C||----------------------------------------|-----------------------------------------------\\slide\\--|



[Verse]
Guitar 1:
D||-----------------------------|-------------------------------------|
A||-----------------------------|-------------------------------------|
F||--9---7---3-3---3-3---3-3-3--|--9---10---10-10---10-10---10-10-10--|
C||--x---x---x-x---x-x---x-x-x--|--x---x----x--x----x--x----x--x--x---|
G||--7---5---1-1---1-1---1-1-1--|--7---9----9--9----9--9----9--9--9---|
C||-----------------------------|-------------------------------------|


D||--------------------------------------|-------------------------------------|
A||--------------------------------------|-------------------------------------|
F||--14---12---10-10---10-10---10-10-10--|--9---10---10-10---10-10---10-10-10--|
C||--x----x----x--x----x--x----x--x--x---|--x---x----x--x----x--x----x--x--x---|
G||--12---10---8--8----8--8----8--8--8---|--7---8----8--8----8--8----8--8--8---|
C||--------------------------------------|-------------------------------------|


D||--------------------------------------|--------------------------------------|
A||--------------------------------------|--------------------------------------|
F||--15---14---12-12---12-12---12-12-12--|--15---14---12-12---12-12---12-12-12--|
C||--x----x----x--x----x--x----x--x--x---|--x----x----x--x----x--x----x--x--x---|
G||--13---12---10-10---10-10---10-10-10--|--13---12---10-10---10-10---10-10-10--|
C||--------------------------------------|--------------------------------------|


D||-----------------------------|-------------------------|
A||-----------------------------|-------------------------|
F||--9---9---9-9---9-9---9-9-9--|--12---12---10-9---------|
C||--x---x---x-x---x-x---x-x-x--|--x----x----x--x---//\\--|
G||--7---7---7-7---7-7---7-7-7--|--10---10---8--7---//\\--|
C||-----------------------------|-------------------//\\--|


Guitar 2:
D||-----------------------------|-----------------------------|
A||-----------------------------|-----------------------------|
F||-----------------------------|-----------------------------|
C||--8---8---8-8---8-8---8-8-8--|--8---8---8-8---8-8---8-8-8--|
G||--8---8---8-8---8-8---8-8-8--|--8---8---8-8---8-8---8-8-8--|
C||--8---8---8-8---8-8---8-8-8--|--8---8---8-8---8-8---8-8-8--|


D||-----------------------------|-----------------------------|
A||-----------------------------|-----------------------------|
F||-----------------------------|-----------------------------|
C||--0---0---0-0---0-0---0-0-0--|--0---0---0-0---0-0---0-0-0--|
G||--0---0---0-0---0-0---0-0-0--|--0---0---0-0---0-0---0-0-0--|
C||--0---0---0-0---0-0---0-0-0--|--0---0---0-0---0-0---0-0-0--|


D||-----------------------------|-----------------------------|
A||-----------------------------|-----------------------------|
F||-----------------------------|-----------------------------|
C||--8---8---8-8---8-8---8-8-8--|--8---8---8-8---8-8---8-8-8--|
G||--x---x---x-x---x-x---x-x-x--|--x---x---x-x---x-x---x-x-x--|
C||--5---5---5-5---5-5---5-5-5--|--5---5---5-5---5-5---5-5-5--|


D||--------------------------------------|--------------------------|
A||--------------------------------------|--------------------------|
F||--------------------------------------|--------------------------|
C||--10---10---10-10---10-10---10-10-10--|--10---10---10-10---//\\--|
G||--10---10---10-10---10-10---10-10-10--|--10---10---10-10---//\\--|
C||--10---10---10-10---10-10---10-10-10--|--10---10---10-10---//\\--|



[Chorus]
Guitar 1:
D||------------------------------------------------------------------------------------------------|
A||------------------------------------------------------------------------------------------------|
F||--7-7-7-9--9--9--10-10-10-10-10-10-10-10-10-10-14-14-14-10-10-10-12-12-12-12-12-12-12-12-12-12--|
C||--7-7-7-10-10-10-12-12-12-12-12-12-12-12-12-12-15-15-15-12-12-12-14-14-14-14-14-14-14-14-14-14--|
G||------------------------------------------------------------------------------------------------|
C||------------------------------------------------------------------------------------------------|


D||-------------------------------------------------------------------------------------------|
A||-------------------------------------------------------------------------------------------|
F||--7-7-7-9--9--9--10-10-10-10-10-10-10-10-10-10-14-14-14-10-10-10-10-10-9-------------------|
C||--7-7-7-10-10-10-12-12-12-12-12-12-12-12-12-12-15-15-15-12-12-12-12-12-10------------------|
G||-------------------------------------------------------------------------------\\pick\\----|
C||--------------------------------------------------------------------------------\\slide\\--|


Guitar 2:
D||-------------------------------------------------------------------|
A||-------------------------------------------------------------------|
F||--7-7-7-7-7-7-7-7-7-5-5--------------------------------------------|
C||--7-7-7-7-7-7-7-7-7-5-5-3-3-5-5-0-8-8-8-8-8-8-8-8-7-7-8-10-7-8-10--|
G||--5-5-5-5-5-5-5-5-5-3-3-3-3-5-5-0-8-8-8-8-8-8-8-8-7-7-8-10-7-8-10--|
C||------------------------3-3-5-5-0-8-8-8-8-8-8-8-8-7-7-8-10-7-8-10--|


D||---------------------------------------------------------------------|
A||---------------------------------------------------------------------|
F||--7-7-7-7-7-7-7-7-7-5-5----------------------------------------------|
C||--7-7-7-7-7-7-7-7-7-5-5-3-3-5-5-0-8-8-8-8-8-8-8-10-7-----------------|
G||--5-5-5-5-5-5-5-5-5-3-3-3-3-5-5-0-8-8-8-8-8-8-8-10-7-----\\pick-\\---|
C||------------------------3-3-5-5-0-8-8-8-8-8-8-8-10-7------\\slide\\--|



[Pre-Verse]
Guitar 1:
D||----------------------------------------|-------------------------------------------------------------|
A||----------------------------------------|-------------------------------------------------------------|
F||----------------------------------------|-------------------------------------------------------------|
C||--2--3--0------------2--3--0------------|--2--3--0------------5--5--3--2------------------------------|
G||--1--1--1------------x--x--x------------|--1--1--1------------3--3--3--3------------------\\pick-\\---|
C||---------------------0--0--0------------|--------------------------------------------------\\slide\\--|


Guitar 2:
D||----------------------------------------|-------------------------------------------------------------|
A||----------------------------------------|-------------------------------------------------------------|
F||----------------------------------------|--3--------9--10--7-----------------7--7--10--9--------------|
C||--2--3--0------------2--3--0------------|--x--------x--x---x-----------------x--x--x---x--------------|
G||--1--1--1------------x--x--x------------|--1--------7--8---5-----------------5--5--8---7--\\pick-\\---|
C||---------------------0--0--0------------|--------------------------------------------------\\slide\\--|



[Verse]
Guitar 1:
D||-----------------------------|-------------------------------------|
A||-----------------------------|-------------------------------------|
F||--9---7---3-3---3-3---3-3-3--|--9---10---10-10---10-10---10-10-10--|
C||--x---x---x-x---x-x---x-x-x--|--x---x----x--x----x--x----x--x--x---|
G||--7---5---1-1---1-1---1-1-1--|--7---9----9--9----9--9----9--9--9---|
C||-----------------------------|-------------------------------------|


D||--------------------------------------|-------------------------------------|
A||--------------------------------------|-------------------------------------|
F||--14---12---10-10---10-10---10-10-10--|--9---10---10-10---10-10---10-10-10--|
C||--x----x----x--x----x--x----x--x--x---|--x---x----x--x----x--x----x--x--x---|
G||--12---10---8--8----8--8----8--8--8---|--7---8----8--8----8--8----8--8--8---|
C||--------------------------------------|-------------------------------------|


D||--------------------------------------|--------------------------------------|
A||--------------------------------------|--------------------------------------|
F||--15---14---12-12---12-12---12-12-12--|--15---14---12-12---12-12---12-12-12--|
C||--x----x----x--x----x--x----x--x--x---|--x----x----x--x----x--x----x--x--x---|
G||--13---12---10-10---10-10---10-10-10--|--13---12---10-10---10-10---10-10-10--|
C||--------------------------------------|--------------------------------------|


D||-----------------------------|-------------------------|
A||-----------------------------|-------------------------|
F||--9---9---9-9---9-9---9-9-9--|--12---12---10-9---------|
C||--x---x---x-x---x-x---x-x-x--|--x----x----x--x---//\\--|
G||--7---7---7-7---7-7---7-7-7--|--10---10---8--7---//\\--|
C||-----------------------------|-------------------//\\--|


Guitar 2:
D||-----------------------------|-----------------------------|
A||-----------------------------|-----------------------------|
F||-----------------------------|-----------------------------|
C||--8---8---8-8---8-8---8-8-8--|--8---8---8-8---8-8---8-8-8--|
G||--8---8---8-8---8-8---8-8-8--|--8---8---8-8---8-8---8-8-8--|
C||--8---8---8-8---8-8---8-8-8--|--8---8---8-8---8-8---8-8-8--|


D||-----------------------------|-----------------------------|
A||-----------------------------|-----------------------------|
F||-----------------------------|-----------------------------|
C||--0---0---0-0---0-0---0-0-0--|--0---0---0-0---0-0---0-0-0--|
G||--0---0---0-0---0-0---0-0-0--|--0---0---0-0---0-0---0-0-0--|
C||--0---0---0-0---0-0---0-0-0--|--0---0---0-0---0-0---0-0-0--|


D||-----------------------------|-----------------------------|
A||-----------------------------|-----------------------------|
F||-----------------------------|-----------------------------|
C||--8---8---8-8---8-8---8-8-8--|--8---8---8-8---8-8---8-8-8--|
G||--x---x---x-x---x-x---x-x-x--|--x---x---x-x---x-x---x-x-x--|
C||--5---5---5-5---5-5---5-5-5--|--5---5---5-5---5-5---5-5-5--|


D||--------------------------------------|--------------------------------|
A||--------------------------------------|--------------------------------|
F||--------------------------------------|--------------------------------|
C||--10---10---10-10---10-10---10-10-10--|--10---10---10-10---x--x--x--x--|
G||--10---10---10-10---10-10---10-10-10--|--10---10---10-10---x--x--x--x--|
C||--10---10---10-10---10-10---10-10-10--|--10---10---10-10---x--x--x--x--|



[Chorus]
Guitar 1:
D||------------------------------------------------------------------------------------------------|
A||------------------------------------------------------------------------------------------------|
F||--7-7-7-9--9--9--10-10-10-10-10-10-10-10-10-10-14-14-14-10-10-10-12-12-12-12-12-12-12-12-12-12--|
C||--7-7-7-10-10-10-12-12-12-12-12-12-12-12-12-12-15-15-15-12-12-12-14-14-14-14-14-14-14-14-14-14--| x3
G||------------------------------------------------------------------------------------------------|
C||------------------------------------------------------------------------------------------------|


D||---------------------------------------------------------------------------|
A||---------------------------------------------------------------------------|
F||--7-7-7-9--9--9--10-10-10-10-10-10-10-10-10-10-14-14-14-10-10-10-10-10-9---|
C||--7-7-7-10-10-10-12-12-12-12-12-12-12-12-12-12-15-15-15-12-12-12-12-12-10--|
G||---------------------------------------------------------------------------|
C||---------------------------------------------------------------------------|


Guitar 2:
D||-------------------------------------------------------------------|
A||-------------------------------------------------------------------|
F||--7-7-7-7-7-7-7-7-7-5-5--------------------------------------------|
C||--7-7-7-7-7-7-7-7-7-5-5-3-3-5-5-0-8-8-8-8-8-8-8-8-7-7-8-10-7-8-10--|
G||--5-5-5-5-5-5-5-5-5-3-3-3-3-5-5-0-8-8-8-8-8-8-8-8-7-7-8-10-7-8-10--|
C||------------------------3-3-5-5-0-8-8-8-8-8-8-8-8-7-7-8-10-7-8-10--|


D||--------------------------------------------------------------------|
A||--------------------------------------------------------------------|
F||--7-7-7-7-7-7-7-7-7-5-5---------------------------------------------|
C||--7-7-7-7-7-7-7-7-7-5-5-3-3-5-5-0-8-8-8-8-8-8-8-10-7-7-7-7-7-7-7-7--| [x2]
G||--5-5-5-5-5-5-5-5-5-3-3-3-3-5-5-0-8-8-8-8-8-8-8-10-7-7-7-7-7-7-7-7--|
C||------------------------3-3-5-5-0-8-8-8-8-8-8-8-10-7-7-7-7-7-7-7-7--|
                                                        . . . .



[Breakdown]
Guitar 1/2:
D||-------------------------------------------------------------------------------|
A||-------------------------------------------------------------------------------|
F||-------------------------------------------------------------------------------|
C||--0--0------0--0----0---------0-0-0------0--0------0--0----0------2-2-2-3-3-3--|
G||--0--0------0--0----0---------0-0-0------0--0------0--0----0------3-3-3-3-3-3--|
C||--0--0------0--0----0---------0-0-0------0--0------0--0----0-------------------|
     .  .      .  .    .         . . .      .  .      .  .    .


D||-------------------------------------------------------------------------------|
A||-------------------------------------------------------------------------------|
F||----------------------------------'3-------------------------------------------|
C||--0--0------0--0----0----0----0-0--------0--0------0--0----0------2-2-2-3-3-3--|
G||--0--0------0--0----0----0----0-0--------0--0------0--0----0------3-3-3-3-3-3--|
C||--0--0------0--0----0----0----0-0--------0--0------0--0----0-------------------|
     .  .      .  .    .    .    . .        .  .      .  .    .



[Chorus]
Guitar 1:
D||------------------------------------------------------------------------------------------------|
A||------------------------------------------------------------------------------------------------|
F||--7-7-7-9--9--9--10-10-10-10-10-10-10-10-10-10-14-14-14-10-10-10-12-12-12-12-12-12-12-12-12-12--|
C||--7-7-7-10-10-10-12-12-12-12-12-12-12-12-12-12-15-15-15-12-12-12-14-14-14-14-14-14-14-14-14-14--| x3
G||------------------------------------------------------------------------------------------------|
C||------------------------------------------------------------------------------------------------|


D||---------------------------------------------------------------------------|
A||---------------------------------------------------------------------------|
F||--7-7-7-9--9--9--10-10-10-10-10-10-10-10-10-10-14-14-14-10-10-10-10-10-9---|
C||--7-7-7-10-10-10-12-12-12-12-12-12-12-12-12-12-15-15-15-12-12-12-12-12-10--|
G||---------------------------------------------------------------------------|
C||---------------------------------------------------------------------------|


Guitar 2:
D||-------------------------------------------------------------------|
A||-------------------------------------------------------------------|
F||--7-7-7-7-7-7-7-7-7-5-5--------------------------------------------|
C||--7-7-7-7-7-7-7-7-7-5-5-3-3-5-5-0-8-8-8-8-8-8-8-8-7-7-8-10-7-8-10--|
G||--5-5-5-5-5-5-5-5-5-3-3-3-3-5-5-0-8-8-8-8-8-8-8-8-7-7-8-10-7-8-10--|
C||------------------------3-3-5-5-0-8-8-8-8-8-8-8-8-7-7-8-10-7-8-10--|


D||--------------------------------------------------------------------|
A||--------------------------------------------------------------------|
F||--7-7-7-7-7-7-7-7-7-5-5---------------------------------------------|
C||--7-7-7-7-7-7-7-7-7-5-5-3-3-5-5-0-8-8-8-8-8-8-8-10-7-7-7-7-7-7-7-7--|
G||--5-5-5-5-5-5-5-5-5-3-3-3-3-5-5-0-8-8-8-8-8-8-8-10-7-7-7-7-7-7-7-7--|
C||------------------------3-3-5-5-0-8-8-8-8-8-8-8-10-7-7-7-7-7-7-7-7--|
                                                        . . . .



[Outro]
Guitar 1:
D||-------------------------------------------------|--------------------------------------------------|
A||-------------------------------------------------|--------------------------------------------------|
F||--12-12-12-10-10-10-14-14-14-10-10-10-7-7-10-10--|--12-12-12-10-10-10-14-14-14-15-15-15-12-9-10-12--|
C||--x--x--x--x--x--x--x--x--x--x--x--x--x-x-x--x---|--x--x--x--x--x--x--x--x--x--x--x--x--x--x-x--x---|
G||--10-10-10-8--8--8--12-12-12-8--8--8--5-5-8--8---|--10-10-10-8--8--8--12-12-12-13-13-13-10-7-8--10--|
C||-------------------------------------------------|--------------------------------------------------|


D||-------------------------------------------------|--------------------------------------------------|
A||-------------------------------------------------|--------------------------------------------------|
F||--12-12-12-10-10-10-14-14-14-10-10-10-7-7-10-10--|--12-12-12-12-12-12-12-14-9--9--9--9--9--9--9--9--|
C||--x--x--x--x--x--x--x--x--x--x--x--x--x-x-x--x---|--x--x--x--x--x--x--x--x--x--x--x--x--x--x--x--x--|
G||--10-10-10-8--8--8--12-12-12-8--8--8--5-5-8--8---|--10-10-10-10-10-10-10-12-7--7--7--7--7--7--7--7--|
C||-------------------------------------------------|--------------------------------------------------|


Guitar 2:
D||-------------------------------------------------------------------|
A||-------------------------------------------------------------------|
F||--7-7-7-7-7-7-7-7-7-5-5--------------------------------------------|
C||--7-7-7-7-7-7-7-7-7-5-5-3-3-5-5-0-8-8-8-8-8-8-8-8-7-7-8-10-7-8-10--|
G||--5-5-5-5-5-5-5-5-5-3-3-3-3-5-5-0-8-8-8-8-8-8-8-8-7-7-8-10-7-8-10--|
C||------------------------3-3-5-5-0-8-8-8-8-8-8-8-8-7-7-8-10-7-8-10--|


D||--------------------------------------------------------------------|
A||--------------------------------------------------------------------|
F||--7-7-7-7-7-7-7-7-7-5-5---------------------------------------------|
C||--7-7-7-7-7-7-7-7-7-5-5-3-3-5-5-0-8-8-8-8-8-8-8-10-7-7-7-7-7-7-7-7--|
G||--5-5-5-5-5-5-5-5-5-3-3-3-3-5-5-0-8-8-8-8-8-8-8-10-7-7-7-7-7-7-7-7--|
C||------------------------3-3-5-5-0-8-8-8-8-8-8-8-10-7-7-7-7-7-7-7-7--|
                                                        . . . .


Guitar 1/2:
D||------------------------|
A||------------------------|
F||------------------------|
C||--0--0------0--0----0~--|
G||--0--0------0--0----0~--|
C||--0--0------0--0----0~--|
     .  .      .  .    .





*****************************
-Tablature Legend-

h   hammer-on
p   pull-off
b   bend
pb  pre-bend
r   release bend
~   hold / vibrato
.   palm mute
/   slide up
\   slide down
*   pinch harmonic
'   natural harmonic
x   mute note
T   tap

*****************************

            
            
Suggest correction
Creating personal tab
Creating personal tab
You can edit any tab online and save it as your Personal.

You can edit, replace or remove any tab part or add personal notes – all changes will be seen only by you.

Personal tabs can be accessed anytime from any device, even offline.
Learn more »
Give kudos to tab author, rate the tab!
1 2 3 4 5
comments
print report bad tab
guest
You may want to rate the tab now too:
select rating
Wanna post a correction for this tab? Suggest correction