Oops, an error
Loading. Please wait.

Desert Nights bass

101 views 1 this week
1 commentread comment
1 2 3 4 5
2 more votes to show rating
add to favorites
×
Save as Personal and add changes to this tab that will be seen only by you. Learn more ›
×
You can save this tab as Personal to edit and correct it or add notes. All changes will be seen only by you. Learn more »
launch autoscroll
font size
0
reset
guitar tuner
edit
Autoscroll
slow
fast
+/-
esc
set tempo
stop
Artist: Silverstein
Song: Desert Nights
Album: I Am Alive In Everything I Touch

Please rate and comment any corrections

Tuning: Drop C# (C# G# C# F#)


Intro
Just Guitar

Verse
F#||------------------------------------|--------------------------------------|
C#||------------------------------------|--------------------------------------|
G#||-----3------------------------------|----3---------------------------------|
C#||---2---2-3~---3-33-3--7-7-5-5-5-5-5-|--2---2-3~---3-33-3-3---3--3---3--3-3-| x2


Pre-Chorus
F#||---------------------------------------------------|
C#||---------------------------------------------------|
G#||---------------------------------------------------|
C#||--3-3-3-3-3-3-5-5-5-5-5-5-7-7-7-7-7-7-7-7-7-7-7-7--|

F#||---------------------------------------------------|
C#||---------------------------------------------------|
G#||---------------------------------------------------|
C#||--3-3-3-3-3-3-5-5-5-5-5-5-7-7-7-7-7-7-7-7-7-7-7-7--|


Chorus
F#||-----------------------------------------------------------------|
C#||-----------------------------------------------------------------|
G#||--3---3-3---3----------------------------------------------------|
C#||--------------3---3-3---3-3-3-3---7---7-7---7-5---5-5---5-x-x-x--|
                                                              
F#||--------------------------------------------------|
C#||--------------------------------------------------|
G#||--3---3-3---3-------------------------------------|
C#||--------------3---3-3---3-3-3-3---7---7-7---7-5\--|


Verse
F#||------------------------------------|--------------------------------------|
C#||------------------------------------|--------------------------------------|
G#||-----3------------------------------|----3---------------------------------|
C#||---2---2-3~---3-33-3--7-7-5-5-5-5-5-|--2---2-3~---3-33-3-3---3--3---3--3-3-| x2


Pre-Chorus
F#||--2~----------4~----------5~--|
C#||--3~----------5~----------7~--|
G#||------------------------------|
C#||------------------------------|

F#||---------------------------------------------------|
C#||---------------------------------------------------|
G#||---------------------------------------------------|
C#||--3-3-3-3-3-3-5-5-5-5-5-5-7-7-7-7-7-7-7-7-7-7-7-7--|


Chorus
F#||-----------------------------------------------------------------|
C#||-----------------------------------------------------------------|
G#||--3---3-3---3----------------------------------------------------|
C#||--------------3---3-3---3-3-3-3---7---7-7---7-5---5-5---5-x-x-x--|
                  
F#||-----------------------------------------------------------------|
C#||-----------------------------------------------------------------|
G#||--3---3-3---3----------------------------------------------------|
C#||--------------3---3-3---3-3-3-3---7---7-7---7-5---5-5---5-5---5--|
                                            
F#||-----------------------------------------------------------------|
C#||-----------------------------------------------------------------|
G#||--3---3-3---3----------------------------------------------------|
C#||--------------3---3-3---3-3-3-3---7---7-7---7-5---5-5---5-x-x-x--|

F#||--------------------------------------------------|
C#||--------------------------------------------------|
G#||--3---3-3---3-------------------------------------|
C#||--------------3---3-3---3-3-3-3---7---7-7---7-5\--|



Bridge
F#||--------------------|
C#||--------------------|
G#||--------------------|
C#||--3----3----3----3--|

F#||----------|
C#||----------|
G#||----------|
C#||--3----3--|

F#||---------------------------------------------------|
C#||---------------------------------------------------|
G#||---------------------------------------------------|
C#||--3----3----3----3---------------3----3----3----3--|

F#||------------------------------------------------|
C#||------------------------------------------------| x2
G#||------------------------------------------------|
C#||--3----3----5----5----7----7----7-7----7-7-7-7--|

F#||---------------------------------------------------|
C#||---------------------------------------------------|
G#||---------------------------------------------------|
C#||--3---3-3-3-3-3---3-3-3-3-5---5-5-5-5-5---5-5-5-5--|

F#||---------------------------------------------------|
C#||---------------------------------------------------|
G#||---------------------------------------------------|
C#||--7-7-7-7-----7-7-7-7-----7-7-7-7-----7-7-7-7-7-7--|



Interlude
Just Guitar


Chorus / Outro
(2:21)
F#||-----------------------------------------------------------------|
C#||-----------------------------------------------------------------|
G#||--3---3-3---3----------------------------------------------------|
C#||--------------3---3-3---3-3-3-3---7---7-7---7-5---5-5---5-x-x-x--|
                  
F#||--------------------------------------------------------------------|
C#||--------------------------------3202--------------------------------|
G#||--3---3-3---3-------------------------------------------------------|
C#||--------------3---3-3---3-3-3-3------7---7-7---7-5---5-5---5-5---5--|
                                            
F#||-----------------------------------------------------------------|
C#||-----------------------------------------------------------------|
G#||--3---3-3---3----------------------------------------------------|
C#||--------------3---3-3---3-3-3-3---7---7-7---7-5---5-5---5-x-x-x--|

F#||-------------------------------------------------------------------|
C#||--------------------------------3202-------------------------------|
G#||--3---3-3---3------------------------------------------------------|
C#||--------------3---3-3---3-3-3-3------7---7----5~--------------7~~~-|

Suggest correction
Creating personal tab
Creating personal tab
You can edit any tab online and save it as your Personal.

You can edit, replace or remove any tab part or add personal notes – all changes will be seen only by you.

Personal tabs can be accessed anytime from any device, even offline.
Learn more »
Give kudos to tab author, rate the tab!
1 2 3 4 5
comments
print report bad tab
1 comment total.
0 reply
B.C.RichRulz 331 Nov 19, 2015 02:28 PM

cool, i thought this song was more difficult :P 5 stars

guest
You may want to rate the tab now too:
select rating
Wanna post a correction for this tab? Suggest correction