Oops, an error
Loading. Please wait.

Discovering The Water Front Tab

3,499 views 1 this week
4 commentsread comments
1 2 3 4 5
1 last vote to show rating
add to favorites
launch autoscroll
font size
0
reset
how to read this tab
guitar tuner
Autoscroll
slow
fast
+/-
esc
set tempo
stop
Help us to improve Ultimate-Guitar.com Take our survey!
×
Song by:Silverstein
Title:Discovering The Waterfront
Album:Discovering The Waterfront
Tuning:standard

Ok this is a complete version of the song with both guitars 
1 and 2 in it if you have any trouble with it comment me on it.


Key:
\=Slide up
/=Slide down
H=Hammer
P=Pull
~=Let it ring



Riff 1 Guitar1

e|----0---0---0---0---0---0—-0~-|
B|---3---3---3---3---3---3---3~-|
G|--0---0---0---0---0---0----0~-|
D|-4---4---4---4---4---4-----0~-|
A|2---0-----------2---0------0~-|
E|-------3---3---------------3~-|

e|----0---0---0---0-----0---0—---0---0------0---0----0---0--|
B|---3---3---3---3-----3---3----3---3------3---3----3---3---|
G|--0---0---0---0-----0---0----0---0------0---0----0---0----|
D|-4---4---4---4-----4---4----4---4------4---4----4---4-----|
A|2---0-------------2---0---------------2---0---------------|
E|-------3---3--------------3---3---------------3---3-------|

e|----0---0-----0---0----0---0---0---0---0—-0~-|
B|---3---3-----3---3----3---3---3---3---3---3~-|
G|--0---0-----0---0----0---0---0---0---0----0~-|
D|-4---4-----4---4----4---4---4---4---4-----0~-|
A|2---0-------------------------------------0~-|
E|---------3---3----3---3----3---3---3------3~-|

Riff 1 Guitar2

e|--------------------------------------------------0~-|
B|--------------------------------------------------3~-|
G|--------------------------------------------------0~-|
D|--------------------------------------------------0~-|
A|--------------------------------------------------0~-|
E|3~-7-5-3~--7-5-3—-7-5-3---7-5-3—-7-5-3---0~--3~---3~-|



Riff 2 Guitar1

e|----------------------------------|
B|----------------------------------|
G|----------------------------------|  
D|99999—1212121212—1414141414-55555-|  X2
A|99999—1212121212—1414141414-55555-|
E|77777—1010101010—1212121212-33333-|

Riff 2 Guitar2

e|----------------------------------|
B|----------------------------------|
G|77777-99999-1111111111-1414141414-|
D|xxxxx-xxxxx--x-x-x-x-x—x-x-x-x-x--|  X2
A|55555-77777--9-9-9-9-9-1212121212-|
E|----------------------------------|

Riff 3 Guitar1

e|-------------------------------|
B|-------------------------------|
G|-------------------------------|
D|999991212121212141414141455555-|  X2
A|999991212121212141414141455555-|
E|777771010101010121212121233333-|


Riff 3 Guitar2


e|-----------------------------------------------------|
B|-----------------------------------------------------|
G|777779999911111111111414141414-77777999991111111111--|
D|xxxxxxxxxx-x-x-x-x-x-x-x-x-x-x-xxxxxxxxxx-x-x-x-x-x--|
A|5555577777-9-9-9-9-91212121212-5555577777-9-9-9-9-9--|
E|-----------------------------------------------------|

Riff 4 Guitar1


e|----0---0---0---0-----0---0—---0---0------0---0----0---0--|
B|---3---3---3---3-----3---3----3---3------3---3----3---3---|
G|--0---0---0---0-----0---0----0---0------0---0----0---0----|
D|-4---4---4---4-----4---4----4---4------4---4----4---4-----|
A|2---0-------------2---0---------------2---0---------------|
E|-------3---3--------------3---3---------------3---3-------|





e|----0---0---0---0-----0---0—---0---0------0---0----0~-|
B|---3---3---3---3-----3---3----3---3------3---3-----3~-|
G|--0---0---0---0-----0---0----0---0------0---0------0~-|
D|-4---4---4---4-----4---4----4---4------4---4-------0~-|
A|2---0-------------2---0---------------2---0--------0~-|
E|-------3---3--------------3---3--------------------3~-|


Riff 4 Guitar 2

e|----------------------------------------------------------|
B|10-12----------10-12--------7-8-7—-10-10/12—-10-10/12-----|
G|------7-9------------7-9—-7-------------------------------|
D|-----------7/9--------------------------------------------|
A|----------------------------------------------------------|
E|------------------------------------------------------15\-|


E|----------------|
B|----------------|
G|----------------|
D|2~-----------5~-|
A|2~-----------5~-|
E|0~-----2-3---0~-|


Riff 5 Guitar1

e|----------------------------------|
B|----------------------------------|
G|----------------------------------|  
D|99999—1212121212—1414141414-55555-|  X2
A|99999—1212121212—1414141414-55555-|
E|77777—1010101010—1212121212-33333-|



Riff 5 Guitar2
e|----------------------------------|
B|----------------------------------|
G|77777-99999-1111111111-1414141414-|
D|xxxxx-xxxxx--x-x-x-x-x—x-x-x-x-x--|  X2
A|55555-77777--9-9-9-9-9-1212121212-|
E|----------------------------------|








 Riff 6 Guitar1
 
e|-------------------------------|
B|-------------------------------|
G|-------------------------------|
D|999991212121212141414141455555-|  
A|999991212121212141414141455555-|
E|777771010101010121212121233333-|

e|--------------------------------|
B|--------------------------------|
G|--------------------------------|
D|9999912121212121414141414141414-|
A|9999912121212121414141414141414-|
E|7777710101010101212121212121212-|



Riff 6 Guitar2


e|-----------------------------------------------------|
B|-----------------------------------------------------|
G|777779999911111111111414141414-77777999991111111111--|
D|xxxxxxxxxx-x-x-x-x-x-x-x-x-x-x-xxxxxxxxxx-x-x-x-x-x--|
A|5555577777-9-9-9-9-91212121212-5555577777-9-9-9-9-9--|
E|-----------------------------------------------------|


Riff 7 Guitar1

e|-----------------------------------------------------|
B|-----------------------------------------------------|
G|-----------------------------------------------------|
D|5555555555-777777777-9999999999-12121212121212121212-|  X4
A|5555555555-777777777-9999999999-12121212121212121212-|
E|3333333333-555555555-7777777777-10101010101010101010-|


Riff 7 Guitar2

e|-----------------------|
B|-----------------------|
G|12-11-9-9\11-11-9-9\11-|
D|-x-x—-x-x\-x—x—-x-x\-x-|  X4
A|10—9—-7-7\-9—9—-7-7\-9-|
E|-----------------------|





Riff 8 Guitar 1

e|---------10-10-----------------10-10-----10--------10-10-------
B|---8-7-8-------8-7-8-7-7—-8-7-8------8-7-----8-7-8-------8-7-8-
G|---------------------------------------------------------------
D|---------------------------------------------------------------
A|---------------------------------------------------------------
E|---------------------------------------------------------------


e|------------10---12--------10-10------------------10--------10-
B|7-7—-8-7-8----10-----8-7-8-------8-7-8-7-7--8-7-8-----8-7-8----
G|---------------------------------------------------------------
D|---------------------------------------------------------------
A|---------------------------------------------------------------
E|---------------------------------------------------------------


e|---12\-14-14--------10-10------------------10-10-------10------
B|10------------8-7-8-------8-7-8-7-7—-8-7-8-------8-7-8----8-7-8
G|---------------------------------------------------------------
D|---------------------------------------------------------------
A|---------------------------------------------------------------
E|---------------------------------------------------------------


e|10-10-----------------10—--12-------10-10----------------10-10-
B|------8-7-8-7-7—8-7-8—--10-----8-7-8------8-7-8-7-7—8-7-8------
G|---------------------------------------------------------------
D|---------------------------------------------------------------
A|---------------------------------------------------------------
E|---------------------------------------------------------------


e|-------10-------10-10--------------10---12\-14-14-|
B|8-7-8-----8-7-8-------8-7-8-7-7------10-----------|
G|--------------------------------------------------|
D|--------------------------------------------------|
A|--------------------------------------------------|
E|--------------------------------------------------|



Riff 8 Guitar2

e|-------------------------------------------10-10---------------
B|--------------------------------------8-7-8------10—8-7-7-8-7-7
G|12-11---12-11---12-11---12-11—---------------------------------
D|-----11------11------11------11—-7-----------------------------
A|---------------------------------7-----------------------------
E|---------------------------------0—----------------------------


e|------10-10-----------------------10-10----------------|
B|8-7-8------10-8-7-7--8-7-7—-8-7-8--------8-7-7--8-7-7--|   
G|-------------------------------------------------------|
D|-------------------------------------------------------|
A|-------------------------------------------------------|
E|-------------------------------------------------------|


Riff 9 Guitar1



e|----------------------------------|
B|----------------------------------|
G|----------------------------------|  
D|99999—1212121212—1414141414-55555-|  X2
A|99999—1212121212—1414141414-55555-|
E|77777—1010101010—1212121212-33333-|



Riff 9 Guitar2


e|----------------------------------|
B|----------------------------------|
G|77777-99999-1111111111-1414141414-|
D|xxxxx-xxxxx--x-x-x-x-x—x-x-x-x-x--|  X2
A|55555-77777--9-9-9-9-9-1212121212-|
E|----------------------------------|



Riff 10 Guitar1


e|-------------------------------|
B|-------------------------------|
G|-------------------------------|
D|999991212121212141414141455555-|  X5 
A|999991212121212141414141455555-|
E|777771010101010121212121233333-|


e|---------------------------|
B|---------------------------|
G|---------------------------|
D|9999912121212121414141414~-|
A|9999912121212121414141414~-|
E|7777710101010101212121212~-|

Riff 10 Guitar2

e|-------------------------------|
B|-------------------------------|
G|777779999911111111111414141414-|
D|xxxxxxxxxx-x-x-x-x-x-x-x-x-x-x-|X6
A|5555577777-9-9-9-9-91212121212-|
E|-------------------------------|


e|------------------------|
B|------------------------|
G|77777999991111111111~---|
D|xxxxxxxxxx-x-x-x-x-x~---|
A|5555577777-9-9-9-9-9~---|
E|------------------------|






Suggest correction
Give kudos to tab author, rate the tab!
1 2 3 4 5
comments
print report bad tab
4 comments total. Showing first comments.
0 reply
fret13 1,031 Aug 31, 2006 06:16 AM

dude this is perfect your the only other one who got the 030030chord i was going to tab it but you got it. there is a third guitar that has a harmonic look at my comment on ver 3 im positive of it. way to go!

0 reply
fret13 1,031 Sep 01, 2006 06:14 AM

whoever gave you 3 or 2 sux.

0 reply
fret13 1,031 Sep 01, 2006 06:14 AM

oh yeah its Waterfront not Water Front lol

guest
You may want to rate the tab now too:
select rating
Wanna post a correction for this tab? Suggest correction