Oops, an error
Loading. Please wait.

Discovering The Waterfront Chords

version 1
version 1

Acoustic

Whole song

Interactive

23,480 views 21 this week
6 commentsread comments
1 2 3 4 5
excellent!
x 6
add to favorites
launch autoscroll
font size
0
reset
transpose
0
reset
display chords
guitar tuner
Autoscroll
slow
fast
+/-
esc
set tempo
stop
Help us to improve Ultimate-Guitar.com Take our survey!
×
Author
fret13 2,028
Artist: Silverstein
Song: Discovering the Waterfront (Acoustic)
Tuning: Standard
Tabbed by: fret13@columbus.rr.com

ok i'm tabbing this without a guitar
(call me retarded if you like but I 
wanted a challenge.) i made this up
one day when i couldnt use my amp
so no you cant go to 
Limewire and download this because its
not really real except for most of the
single note stuff so enjoy.

INTRO:

Guitar 2- Play the open note slightly
and harmonicize on the 7th fret so it sounds
like a rough harmonic. Repeat this through
the 1st verse and the intro.
|------|x?
|------|
|------|
|-0+*7-|
|------|
|------|

Guitar 1
|-----0----0----0----0----0----0----0-|
|----3----3----3----3----3----3-----3-|
|---0----0----0----0----0----0------0-|
|--4----4----4----4----4----4-------0-|
|-2----0--------------2----0--------0-|+-This string could also be muted
|-----------3----3------------------3-|but i like to play it.

VERSE 1:

      |---------0---------0------0-------0-|
      |-------3---------3------3-------3---|
      |-----0---------0------0-------0-----|
      |---4---------4------4-------4-------|
      |-2---------0------------------------|
      |------------------3-------3---------|
I will promice myself I won't care,

      |---------0---------0------0-------0-|
      |-------3---------3------3-------3---|
      |-----0---------0------0-------0-----|
      |---4---------4------4-------4-------|
      |-2---------0------------------------|
      |------------------3-------3---------|
distracting myself from your stare.

      |---------0-------------0----------0-------0-|
      |-------3-------------3----------3-------3---|
      |-----0-------------0----------0-------0-----|
      |---4-------------4----------4-------4-------|
      |-2-------------0----------------------------|
      |--------------------------3-------3---------|
And I've seen this mistake once before,

        |---------0------------0-------0-------0-|
        |-------3------------3-------3-------3---|
        |-----0------------0-------0-------0-----|
        |---4------------4-------4-------4-------|
        |-2------------0-------------------------|
        |----------------------3-------3---------|
with your games i will never fall for.

|---------0------------0--------0----------0-|
|-------3------------3--------3----------3---|
|-----0------------0--------0----------0-----|
|---4------------4--------4----------4-------|
|--------------------------------------------|
|-0------------0--------0----------0---------|
          I've hung up my guns,

|---------0------------0-0|
|-------3------------3---3|
|-----0------------0-----0|
|---4------------4-------0|
|------------------------0|
|-3------------3---------3|
          I won't kill again!

PRE-CHORUS:

Bm D          Em       G          Bm
   I won't forget you.(I won't forget)

D             Em      G
I'm not gonna let you win cause I'm

CHORUS:

Bm       D      Em       G         Bm
tired of lying, tired of fighting you.

        D         Em     (Guitar 2)G
And its not gonna change

VERSE 2:

Guitar 1
|-------------------|
|-------------------|
|-14b16-14----------|
|----------12-14/16-|
|-------------------|
|-------------------|

Guitar 2
      |---------0---------0------0-------0-|
      |-------3---------3------3-------3---|
      |-----0---------0------0-------0-----|
      |---4---------4------4-------4-------|
      |-2---------0------------------------|
      |------------------3-------3---------|
You asked for my heart,

Guitar 1
|------------------------------------|
|------------------------------------|
|-14b16-14---------------------------|
|----------12-14/16--14-12-14h16p14--|
|------------------------------------|
|------------------------------------|

Guitar 2
      |---------0---------0------0-------0-|
      |-------3---------3------3-------3---|
      |-----0---------0------0-------0-----|
      |---4---------4------4-------4-------|
      |-2---------0------------------------|
      |------------------3-------3---------|
You know that I'm down

Guitar 1
|----------|
|----------|
|----------|
|-14-14h16-|
|----------|
|----------|

Guitar 2
      |---------0---------0------0-------0-|
      |-------3---------3------3-------3---|
      |-----0---------0------0-------0-----|
      |---4---------4------4-------4-------|
      |-2---------0------------------------|
      |------------------3-------3---------|
But not the way you lie to me and tear it all apart,

Guitar 1
|----------|
|----------|
|----------|
|-14-14h16-|
|----------|
|----------|

Guitar 2
      |---------0---------0------0-------0-|
      |-------3---------3------3-------3---|
      |-----0---------0------0-------0-----|
      |---4---------4------4-------4-------|
      |-2---------0------------------------|
      |------------------3-------3---------|
And beg for me to say

Guitar 1
|----|
|----|
|----|
|----|
|----|
|-\0-|

Guitar 2
|---------0------------0--------0----------0-|
|-------3------------3--------3----------3---|
|-----0------------0--------0----------0-----|
|---4------------4--------4----------4-------|
|--------------------------------------------|
|-0------------0--------0----------0---------|
I've sailed off to sea

Guitar 1
|-------------|
|-------------|
|-------------|
|-------------|
|-----------5-|
|----2-2-3--3-|

Guitar 2
|---------0------------0-0|
|-------3------------3---3|
|-----0------------0-----0|
|---4------------4-------0|
|------------------------0|
|-3------------3---------3|
I'm not comin' back!

PRE-CHORUS:

Bm D          Em       G          Bm
   I won't forget you.(I won't forget)

D             Em      G
I'm not gonna let you win cause I'm

CHORUS:

Bm       D      Em       G         Bm
tired of lying, tired of fighting you.

        D         Em     G
And its not gonna change

BRIDGE:

G        A               Bm
Counting down, make that sound.

D
And you know it makes no sense.

G        A                    Bm
Counting down 'till you mess around.

D
And I know you can't ever change.

G        A                    Bm
When I'm trembling thrown overboard.

D
When I'm ready to relive the past.

G        A              Bm
Counting down make that sound.

D
Break the silence!

BREAKDOWN:

Guitar 1
|----------10-10-------------------------10-10-------10-|
|-------------------------------------------------------|
|-12p11-11-------12p11-12p11-11-12p11-11-------12p11----|
|-------------------------------------------------------|
|-------------------------------------------------------|
|-------------------------------------------------------|

|----------10-10-------------------------10----12-|
|-------------------------------------------------|
|-12p11-11-------12p11-12p11-11-12p11-11----11----|
|-------------------------------------------------|
|-------------------------------------------------|
|-------------------------------------------------|

Guitar 2
|-------------|
|-------------|
|-------------|
|-xxxxxxxxxxx-|
|-xxxxxxxxxxx-|
|-xxxxxxxxxxx-|

Guitar 1
|----------10-10-------------------------10-10-------10-|
|-------------------------------------------------------|
|-12p11-11-------12p11-12p11-11-12p11-11-------12p11----|
|-------------------------------------------------------|
|-------------------------------------------------------|
|-------------------------------------------------------|

Guitar 2
|----------------|
|----------------|
|----------------|
|----------------|
|-----0-0-2-2----|
|-3-3---------0--|

Pretend it's not forever I'll, pull myself together I'll

Guitar 1
|----------10-10-------------------------10----12/14-14-|
|-------------------------------------------------------|
|-12p11-11-------12p11-12p11-11-12p11-11----11----------|
|-------------------------------------------------------|
|-------------------------------------------------------|
|-------------------------------------------------------|

Guitar 2
|----------------|
|----------------|
|----------------|
|----------------|
|-----0-0-2-2----|
|-3-3---------0--|

Say that I'll forget her I'll, breathe.

Guitar 1
|----------10-10-------------------------10-10-------10-|
|-------------------------------------------------------|
|-12p11-11-------12p11-12p11-11-12p11-11-------12p11----|
|-------------------------------------------------------|
|-------------------------------------------------------|
|-------------------------------------------------------|

Guitar 2
|----------------------|
|----------------------|
|----------------------|
|----------------------|
|-------00000-22222----|
|-33333-------------0--|
And I'll say she never hurt me and look at it as learning and

Guitar 1
|----------10-10-------------------------10----12-|
|-------------------------------------------------|
|-12p11-11-------12p11-12p11-11-12p11-11----11----|
|-------------------------------------------------|
|-------------------------------------------------|
|-------------------------------------------------|

Guitar 2
|----------------------|
|----------------------|
|----------------------|
|----------------------|
|-------00000-22222----|
|-33333-------------0--|

luagh about the good and the bad.

Guitar 1
|----------10-10-------------------------10-10-------10-|
|-------------------------------------------------------|
|-12p11-11-------12p11-12p11-11-12p11-11-------12p11----|
|-------------------------------------------------------|
|-------------------------------------------------------|
|-------------------------------------------------------|

Guitar 2
|------------------------|
|------------------------|
|------------------------|
|------------------------|
|-------000000-222222----|
|-33333---------------0--|

Because I will live forever we don't belong together

Guitar 1
|----------10-10-------------------------10----12/14-14-|
|-------------------------------------------------------|
|-12p11-11-------12p11-12p11-11-12p11-11----11----------|
|-------------------------------------------------------|
|-------------------------------------------------------|
|-------------------------------------------------------|

Guitar 2
|----------------------|
|----------------------|
|----------------------|
|----------------------|
|-------00000-22222----|
|-33333-------------0--|

I know I'll feel better one day when Ican make it work.

PRE-CHORUS:

Bm D          Em       G          Bm
   I won't forget you.(I won't forget)

D             Em      G
I'm not gonna let you win cause I'm

CHORUS:

Bm       D      Em       G         Bm
tired of lying, tired of fighting you.

        D         Em     G
And its not gonna change

PRE-CHORUS:

Bm D          Em       G          Bm
   I won't forget you.(counting down)

D             Em      G
I'm not gonna let you win cause I'm

CHORUS:

Bm       D      Em       G         Bm
tired of lying, tired of fighting you.

        D         Em     G
And its not gonna change

===========================================================================
/slide up
\slide down
+at the same time
*harmonic
B bend
p pull off
H hammer
Suggest correction new What's this?
You can suggest a correction to this tab. Community and Mods will review your correction and vote to approve or reject it.
comments
print report bad tab
6 comments total. Showing first comments.
+1 reply
HH_Emo_666 924 wrote on October 30 2006, 07:29 am

did they actually make this? like could you download it from limewire or something?

0 reply
fret13 2,028 wrote on October 30 2006, 02:50 pm

no i made the entire thing one day when i couldnt use my amp

0 reply
potatoes123 58 wrote on March 29 2007, 07:51 pm

This is real good, sounds great! Nice work dude!

guest
You may want to rate the tab now too:
select rating
Please do not post tabs as comments. Select "correction" instead!