Oops, an error
Loading. Please wait.

Discovering The Waterfront bass

version 1
version 1

Whole song

Interactive

2,424 views 1 this week
2 commentsread comments
1 2 3 4 5
x 5
add to favorites
×
Save as Personal and add changes to this tab that will be seen only by you. Learn more ›
×
You can save this tab as Personal to edit and correct it or add notes. All changes will be seen only by you. Learn more »
launch autoscroll
font size
0
reset
guitar tuner
edit
Autoscroll
slow
fast
+/-
esc
set tempo
stop
Author
Difficulty
I Am Pretty Sure Its Done In Standard Tuning

intro:
:-------------------------------------------------:
:-------------------------------------------------:
:------2~----0~-----------------------------------:
:3~----------------3~-----------------------------:x1
verse:
:-------------------------------------------------:
:-------------------------------------------------:
:2~----0~-----------------------------------------:
:------------3~-----------------------------------:x4
pre-chorus:
:-------------------------------------------------:
:-------------------------------------------------:
:-------------------------------------------------:
:1~----1~----2-3~----3~---------------------------:x1
chorus:
:-------------------------------------------------:
:--------------22222x-55555x----------------------:
:22222x-55555x------------------------------------:
:-------------------------------------------------:x2

:-------------------------------------------------:
:-------------------------------------------------:
:--------------222222-555555----------------------:
:222222-555555------------------------------------:x2
verse:
:-------------------------------------------------:
:-------------------------------------------------:
:2~----0~------------0---2~----0~-----------------:
:------------3~----3---3-------------3~-----------:x2
pre-chorus
chorus
breakdown:
:-------------------------------------------------:
:5(x12)-7(x12)------------------------------------:
:--------------2(x12)-5(x12)----------------------:
:-------------------------------------------------:x4
bridge:
:-------------------------------------------------:
:-------------------------------------------------:
:------------0~----0~----2~----2~----5~----5~-----:
:3~----3~-----------------------------------------:x2
bridge continued:
:--------------------------------------------------------:
:--------------------------------------------------------:
:--------------00000x-00000x-22222x-22222x-55555x-55555x-:
:33333x-33333x-------------------------------------------:
chorus
end:
:--------------------------------------------------------:
:--------------222222-555555-----------------------------:
:222222-555555-------------------------------------------:
:--------------------------------------------------------:

:--------------------------------------------------------:
:--------------2~----------------------------------------:
:222222-555555-------------------------------------------:
:--------------------------------------------------------:

            
            
Suggest correction
Creating personal tab
Creating personal tab
You can edit any tab online and save it as your Personal.

You can edit, replace or remove any tab part or add personal notes – all changes will be seen only by you.

Personal tabs can be accessed anytime from any device, even offline.
Learn more »
comments
print report bad tab
2 comments total.
0 reply
fret13 1,031 Jul 14, 2006 07:44 AM

awesome 5*

0 reply
fret13 1,031 Aug 11, 2006 01:40 PM

i take that back there are a few parts i fixed in my tab but i still think yours is good

guest
You may want to rate the tab now too:
select rating
Wanna post a correction for this tab? Suggest correction