Oops, an error
Loading. Please wait.

Discovering The Waterfront Tab

version 2
version 2

Whole song

Interactive

6,255 views 1 this week
7 commentsread comments
1 2 3 4 5
x 13
add to favorites
launch autoscroll
font size
0
reset
how to read this tab
guitar tuner
Autoscroll
slow
fast
+/-
esc
set tempo
stop
Help us to improve Ultimate-Guitar.com Take our survey!
×
Author
The tab to this song that got five stars was wrong, in my book. It's definitely not 
there's a bunch of stuff missing, I think that ver3 is way better, it's way more technical 
everything is explained, but my version is okay.... Here we go!

-------------------------------------------------------------------------------
                             Discovering the Waterfront - Silverstein
-------------------------------------------------------------------------------
Tabbed by: Tony Guck (scratchboy)
Email: tguck_08@yahoo.com (I don't check it often)

Tuning: standard

intro (0:09 - 0:18)
e|-----0----0----0----0----0----0-----0--|
B|----3----3----3----3----3----3-----3---|
G|---0----0----0----0----0----0-----0----|
D|--4----4----4----4----4----4-----4-----|
A|-2----0--------------2----0-----x------|
E|-----------3----3--------------3-------|

verse (0:20 - 0:43)
e|-----0----0----0----0--|
B|----3----3----3----3---|
G|---0----0----0----0----|    x4
D|--4----4----4----4-----|
A|-2----0----------------|
E|-----------3----3------|

pre-chorus (I've hung up my guns...) (0:44 - 0:52--| - this might be wrong, but the bass
it all up anyway
e|-----0----0----0----0----0----0------------------|
B|----3----3----3----3----3----3-------------------|
G|---0----0----0----0----0----0--------------------|
D|--4----4----4----4----4----4---------------------|
A|-------------------------------------------------|
E|-0----0----3----3----2----0----------------------|

chorus (0:55 - 1:17)- five times for each one, then six

e|-------------------------------------------------------|
B|-------------------------------------------------------|
G|-------------------------------------------------------|
D|-9-9-9-9-9--12-12-12-12-12--14-14-14-14-14--5-5-5-5-5--|
A|-9-9-9-9-9--12-12-12-12-12--14-14-14-14-14--5-5-5-5-5--|
E|-7-7-7-7-7--10-10-10-10-10--12-12-12-12-12--3-3-3-3-3--|

e|-------------------------------------------------------------------------|
B|----------------------------------------------------------------10/12\10-|
G|------------------------------------------------------------------------7|
D|-9-9-9-9-9-9--12-12-12-12-12-12--14-14-14-14-14-14--5-5-5-5-5-5----------|
A|-9-9-9-9-9-9--12-12-12-12-12-12--14-14-14-14-14-14--5-5-5-5-5-5----------|
E|-7-7-7-7-7-7--10-10-10-10-10-10--12-12-12-12-12-12--3-3-3-3-3-3----------|

random slide (after "you ask for my heart) (1:22)
e|------------|
B|--10/12\10--|
G|------------|
D|------------|
A|------------|
E|------------|

chorus 2 (1:52 - 2:51)
e|--------------------------------------------------|
B|--------------------------------------------------|
G|------------7-7-7-7-7--9-9-9-9-9--12-12-12-12-12--|x2
D|-9-9-9-9-9--7-7-7-7-7--9-9-9-9-9--12-12-12-12-12--|
A|-9-9-9-9-9--5-5-5-5-5--7-7-7-7-7--10-10-10-10-10--|
E|-7-7-7-7-7----------------------------------------|

e|-----------------------------------------------------------------|
B|-----------------------------------------------------------------|
G|-----------------------------------------------------------------|
D|-9-9-9-9-9-9--12-12-12-12-12-12--14-14-14-14-14-14--5-5-5-5-5-5--|
A|-9-9-9-9-9-9--12-12-12-12-12-12--14-14-14-14-14-14--5-5-5-5-5-5--|
E|-7-7-7-7-7-7--10-10-10-10-10-10--12-12-12-12-12-12--3-3-3-3-3-3--|

e|-------------------------------------------------------------------------|
B|-------------------------------------------------------------------------|
G|-------------------------------------------------------------------------|
D|-9-9-9-9-9-9--12-12-12-12-12-12--14-14-14-14-14-14--x14-14-14-14-14-14x--|
A|-9-9-9-9-9-9--12-12-12-12-12-12--14-14-14-14-14-14--x14-14-14-14-14-14x--|
E|-7-7-7-7-7-7--10-10-10-10-10-10--12-12-12-12-12-12--x12-12-12-12-12-12x--|
                                                     |      palm mute      |

bridge - strum 8 times for each one (2:15 - 2:59)
e|-----------------------------------------------------------------------------|
B|-----------------------------------------------------------------------------|
G|-----------------------------------------------------------------------------|
D|-5-5-5-5-5-5-5-5--7-7-7-7-7-7-7-7--9-9-9-9-9-9-9-9--12-12-12-12-12-12-12-12--|
A|-5-5-5-5-5-5-5-5--7-7-7-7-7-7-7-7--9-9-9-9-9-9-9-9--12-12-12-12-12-12-12-12--|
E|-3-3-3-3-3-3-3-3--5-5-5-5-5-5-5-5--7-7-7-7-7-7-7-7--10-10-10-10-10-10-10-10--|

another random bending at 2:19, 2:33 and 2:54 during the bridge
e|------------------|
B|------------------|
G|---11/12\11-------|
D|-----------12-12--|
A|------------------|
E|------------------|

interlude (x2) (3:00 - 3:45)
e|------10------------------10-----10--------10------------------10-12-------|
B|-8p7-7--7-8p7-8p7-7--8p7-7--7-8p7-----8p7-7--7-8p7-8p7-7-8p7-7--7----------|
G|---------------------------------------------------------------------------|
D|---------------------------------------------------------------------------|
A|---------------------------------------------------------------------------|
E|---------------------------------------------------------------------------|

e|------10------------------10-----10--------10------------------10-12/14-14-|
B|-8p7-7--7-8p7-8p7-7--8p7-7--7-8p7-----8p7-7--7-8p7-8p7-7-8p7-7--7----------|
G|---------------------------------------------------------------------------|
D|---------------------------------------------------------------------------|
A|---------------------------------------------------------------------------|
E|---------------------------------------------------------------------------|

chorus (x4 1/2) (3:46 - 4:46)

That's it! This was my first tab ever... I don't know if I'll do any more but the other
of this song that there is on this site was so incredibly wrong I wanted to cry - and it
5 stars!? Anyway, thank you for your time.

================================================================================
| ^  bend fret before ^ up to fret after
| /  slide up
| \  slide down
| h  hammer-on
| p  pull-off
| ~  vibrato
| +  harmonic
| x  Mute note
===============================================================================
Suggest correction
comments
print report bad tab
7 comments total. Showing first comments.
0 reply
getoutofhere 81 Jun 26, 2006 11:04 AM

awesome tab. i've been waiting for someone to tab an accurate version. good job.

0 reply
fret13 1,031 Aug 01, 2006 06:56 AM

wheres guitar 2 lol

0 reply
jamjar 97 Aug 02, 2006 08:35 AM

this is a good tab

guest
You may want to rate the tab now too:
select rating
Wanna post a correction for this tab? Suggest correction