Oops, an error
Loading. Please wait.

Falling Down bass

284 views 1 this week
1 commentread comment
1 2 3 4 5
2 more votes to show rating
add to favorites
×
Save as Personal and add changes to this tab that will be seen only by you. Learn more ›
×
You can save this tab as Personal to edit and correct it or add notes. All changes will be seen only by you. Learn more »
launch autoscroll
font size
0
reset
guitar tuner
edit
Autoscroll
slow
fast
+/-
esc
set tempo
stop
+++++++++++++++++++++++++++++
| Silverstein- Falling Down |
+++++++++++++++++++++++++++++

Tuning: Drop D (DADG)

Intro
1.
G|---------------------|
D|-----1~--------------|
A|---------------------|
D|-1~------5~-6~-5~-1~-|

Verse
"Cut through the skin..."
2.
G|-----------------------------------------------------|
D|-------------------------------------1~--------------|
A|--------------3~-------------------------------------|--x2
D|-33~-33~-33~-3---33~-33~-33~-33~-1~------5~-6~-5~-1~-|

Chorus
"Silence hurts more than the worse sound..."
3.
G|----------------------------------------------|
D|--------------------------------3~--5~--6-5---|
A|-444444-444444-444444-3-4-4-6~--------------6-|--x2
D|----------------------------------------------|

Verse
"Fill out the papers..."
4.
G|-----------------------------------------------------|
D|-------------------------------------1~--------------|
A|--------------3~-------------------------------------|--x2
D|-33~-33~-33~-3---33~-33~-33~-33~-1~------5~-6~-5~-1~-|

Chorus
"Silence hurts more than the worse sound..."
5.
G|----------------------------------------------|
D|--------------------------------3~--5~--6-5---|
A|-444444-444444-444444-3-4-4-6~--------------6-|--x2
D|----------------------------------------------|

Brigde
"I can see you and me..."
6.
G|------------------------------------------------------|
D|-----------------------------------------------333333-|
A|--------------333133133133--------------333333--------|
D|-666666666666--------------666666666666---------------|

7.
G|------------------------------------------------------|
D|------------------------------------------------------|
A|--------------333133133133----------------------------|
D|-666666666666--------------666666666666-5~-6~-5~-1~---|

8.
G|------------------------------------------------------|
D|-----------------------------------------------333333-|
A|--------------333133133133--------------333333--------|
D|-666666666666--------------666666666666---------------|

9.
G|------------------------------------------------------|
D|------------------------------------------------------|
A|--------------333133133133----------------------------|
D|-666666666666--------------666666666666-5~-6~-5~-1~---|

10.
G|-------------------------|
D|-------------------------|
A|-------------------------|
D|-5~-6~-5~-1~-5~-6~-5~-1~-|

2:22
11.
G|----------------------------------------------------|
D|----------------------------------------------------|
A|----------------------------------------------------|
D|-3~--------33~--33~--33~--33~--33~--111111-1~-1~-1~-|

Chorus
"Silence hurts more than the worse sound..."
12.
G|----------------------------------------------|
D|--------------------------------3~--5~--6-5---|
A|-444444-444444-444444-3-4-4-6~--------------6-|--x3
D|----------------------------------------------|

"Say Im wrong..."
13.
G|----------------------------------------------------|
D|--------------------------------3~------------------|
A|-444444-444444-444444-3-4-4-6~----------------------|
D|------------------------------------5~-6~-5~-1~-3~x-|

Lyrics:

Cut through the skin with knives of words
I'm still bleeding out questions of nerve
What will it take to sort this out?
It's still lodging it's blade in my heart

Silence hurts more than the worst sound
Now it's too late to call
Say I'm wrong and throw the first round
I'm still falling down

Fill out the paper, File the forms
And I'm signing you up for the war
This is the way we've learned to cope
Insecurities take over hope

I can see, I can see you and me on the water tonight
Blood red sky lets me know you'll be here by my side
And tomorrow we will wake up, We can start again
We have so much left to learn from all of our mistakes

You can trust me
I won't give up
I won't let you go

+++++++++++++++++++++++++++++++++
| RaiLeff                       |
| Underground__Dora@Hotmail.Com |
+++++++++++++++++++++++++++++++++

            
            
Suggest correction
Creating personal tab
Creating personal tab
You can edit any tab online and save it as your Personal.

You can edit, replace or remove any tab part or add personal notes – all changes will be seen only by you.

Personal tabs can be accessed anytime from any device, even offline.
Learn more »
Give kudos to tab author, rate the tab!
1 2 3 4 5
comments
print report bad tab
1 comment total.
0 reply
carrotcake 2,007 Dec 26, 2007 05:33 PM

Good job gettin those two extra songs from A&D, I've never heard either of them though lol

guest
You may want to rate the tab now too:
select rating
Wanna post a correction for this tab? Suggest correction