Oops, an error
Loading. Please wait.

Falling Down Tab

version 1
version 1

Whole song

1,351 views 3 this week
1 commentread comment
1 2 3 4 5
2 more votes to show rating
add to favorites
launch autoscroll
font size
0
reset
how to read this tab
guitar tuner
Autoscroll
slow
fast
+/-
esc
set tempo
stop
Help us to improve Ultimate-Guitar.com Take our survey!
×
Author
Difficulty
Tuning
novice
D G C F A D
 Silverstein
 Falling down
 Arrivals and Departures

 Tuning: Drop D

 This is my first tab so plz rate itt , for me sounds good,
 i think is 90% right. enjoy it

 Key

 ~ let it ring
 b bending
 . palm mute
 x mute note
 > continue till you hear the change

 Intro/verse

Guitar 1

e-----16--15-----------------------------18--20--20b~-----------------|
b--13---------16~--------------------16-------------------------------|
g---------------------------------------------------------------------|
d---------------------------------------------------------------------| x3
a---------------------------------------------------------------------|
D---------------------------------------------------------------------|

Guitar 2

e---------------------------------------------------------------------|
b---------------------------------------------------------------------|
c----------------------------------8~---------------------------------|
d--11--11--11--2/3/1-----------1~--8~---4443~---4441~-----------------| x3
a--11--11--11--2/3/1--x2-------1~--6~---4443~---4441~-----------------|
D--11--11--11--2/3/1-----------1~-------4443~---4441~-----------------|

Chorus (guitar 2)

e---------------------------------------------------------------------|
b---------------------------------------------------------------------|
c------------------6~--8~--9~--11~------------------------------------|
d--3--- 5----6-----6~--8~--9~--11~------------------------------------| x2
a--3-x6-5-x6-6x12--4~--6~--7~--9~-------------------------------------|
D--3--- 5----6--------------------------------------------------------|

Verse x2

Chorus x2

Interlude (figure out the strumming by yourself)

e--------------------------------------------------------------------------|
b--------------------------------------------------------------------------|
c--------------------------------10-/9-------------------------------------|
d--xxx---10---9---7-----10---9---x->/x->---10---9---7----10---4443~-4441~--|
a--xxx---10->-9->-7->---10->-9->-8--/7-----10->-9->-7->--10->-4443~-4441~--| 2x
D--xxx---10---9---7-----10---9-------------10---9---7----10---4443~-4441~--|

e---------------------------------------------------------|
b---------------------------------------------------------|
c---------------------------------------------------------|
d---4443~--4441~--4443~--4441~----------------------------|
a---4443~--4441~--4443~--4441~----------------------------|
D---4443~--4441~--4443~--4441~----------------------------|

Guitar one only

e------16--15-----------------|
b--13----------16~~-----------|
c-----------------------------|
d-----------------------------|
a-----------------------------|
D-----------------------------|

Guitar 2

e------------------------------------------|
b------------------------------------------|
c------------------------------------------|
d--0~---1-----1~-1~-1~---------------------|
a--0~---1-x8--1~-1~-1~---------------------|
D--0~---1-----1~-1~-1~---------------------|
        .                                   pm

Chorus x3

Last chorus

e----------------------------------------------------------|
b----------------------------------------------------------|
c------------------6~--8~----------------------------------|
d--3--- 5----6-----6~--8~----6665~---6664~-----------------|
a--3-x6-5-x6-6x12--4~--6~----6665~---6664~-----------------|
D--3--- 5----6---------------6665~---6664~-----------------|

End with

e----------|
b----------|
c----------|
d---3~-----|
a---3~-----|
D---3~-----|

thats all
i hope you likee itt
Suggest correction
Give kudos to tab author, rate the tab!
1 2 3 4 5
comments
print report bad tab
1 comment total.
0 reply
fiito0_kuky 10 Mar 11, 2008 08:36 PM

well
its good
but it need some corrections
:P

atoo fitoo
:P

guest
You may want to rate the tab now too:
select rating
Wanna post a correction for this tab? Suggest correction