Oops, an error
Loading. Please wait.

Fist Wrapped In Blood Tab

version 2
version 2

Whole song

Interactive

2,036 views 1 this week
3 commentsread comments
1 2 3 4 5
x 6
add to favorites
launch autoscroll
font size
0
reset
how to read this tab
guitar tuner
Autoscroll
slow
fast
+/-
esc
set tempo
stop
Help us to improve Ultimate-Guitar.com Take our survey!
×
Author
Difficulty
intermediate
-------------------------------------------------------------------------------
                             First wrapped in blood- Silverstein
-------------------------------------------------------------------------------
Tabbed by: Chris
Email:Monkeycheez4@yahoo.com

Tuning: Eadgbe
Intro 1                         On last part of th lick thing, end like this
e|------------556655------------------556655--------------------------------|
B|--------5566------656hx3--------5566-------656h-886655668x1---------------|
G|-----77-----------------------77------------------------------------------|
D|--------------------------------------------------------------------------|
A|--------------------------------------------------------------------------|
E|--------------------------------------------------------------------------|

Intro 2: x2
e|--------------------------------------------------------------------------|
B|--------------------------------------------------------------------------|
G|---------------------------12--14--12--9----------------------------------|
D|----------------------------x---x---x--x----------------------------------|
A|-7-88\7--8-88\7--10-88\7---10--12--10--7----------------------------------|
E|-5-------6-------8--------------------------------------------------------|

Verse 1: x2
e|--------------------------------------------------------------------------|
B|--------------------------------------------------------------------------|
G|--------------------------------------------------------------------------|
D|------------------------2-------------------------------------------------|
A|-7x16--8x16--7x16--3x8--2x8-----------------------------------------------|
E|-5-----6-----5-----1----0-------------------------------------------------|

Chorus: x2
e|--------------------------------------------------------------------------|
B|--------------------------------------------------------------------------|
G|--------------------------------------------------------------------------|
D|-------------7x8--5x8-----------------------------------------------------|
A|-3x16--7x16--5----3---8---------------------------------------------------|
E|-1-----5--------------6x16------------------------------------------------|


Verse 2 Guitar 2
e|-------------------5-3-0--------------------------------------------------|
B|-6\5---6\5---6\5----------------------------------------------------------|
G|-----5-----5-----5--------------------------------------------------------|
D|--------------------------------------------------------------------------|
A|--------------------------------------------------------------------------|
E|--------------------------------------------------------------------------|

Bridge: Played after Intro 1 is played the second time(1:55)
e|---------------------------------------------------------------------------|
B|---------------------------------------------------------------------------|
G|---------------------------------------------------------------------------|
D|-2x-x16--------------------------------------------------------------------|
A|-2x------------------------------------------------------------------------|
E|-0x------------------------------------------------------------------------|

Bridge continued:x3
e|---------------------------------------------------------------------------|
B|---------------------------------------------------------------------------|
G|---------17x4--14x4--15x4--14x4--------------------------------------------|
D|----------x-----x-----x-----x----------------------------------------------|
A|---------15----12----13----12----------------------------------------------|
E|---------------------------------------------------------------------------|

e|---------------------------------------------------------------------------|
B|---------------------------------------------------------------------------|
G|---------------------------------------------------------------------------|
D|-2x-x4----------2x-x4------------------------------------------------------|
A|-2x------3x4----2x------3x4------------------------------------------------|
E|-0x------1------0x------1--------------------------------------------------|
The ending is just palm muted E, listen to the song and figure out the rythem.

Song Order:
Intro 1
Intro 2
Verse 1
Chorus
Intro 2
Verse 2
Chorus
Intro1
Bridge
Ending
Suggest correction
comments
print report bad tab
3 comments total.
0 reply
BranD 30 Mar 06, 2006 07:41 PM

nice job. you could use a couple alternate fingerings on the intro though so that you don't have to shift down (for the 3 and 1)

0 reply
BranD 30 Mar 06, 2006 07:59 PM

umm nevermind on that..sorry..misread

0 reply
jonathanonfire 4,726 May 03, 2006 08:39 AM

the song is in drop d. plus... youre missing alot of the variations.. meh. dont know why so many other versions of this were added. mine is complete.

guest
You may want to rate the tab now too:
select rating
Wanna post a correction for this tab? Suggest correction