Oops, an error
Loading. Please wait.

Fist Wrapped In Blood Tab

version 3
version 3

Whole song

Interactive

590 views 1 this week
1 commentread comment
1 2 3 4 5
1 last vote to show rating
add to favorites
launch autoscroll
font size
0
reset
how to read this tab
guitar tuner
Autoscroll
slow
fast
+/-
esc
set tempo
stop
Help us to improve Ultimate-Guitar.com Take our survey!
×
Difficulty
Tuning
intermediate
D A D G B E
this song is fun to play so... have fun!
*-palm mute

Intro Guitar1
----------------|
----------------|
----------------|
-0--8---10-10---|
-0--8---10-10---|
-0--8---10-10---|
let them ring


--------------------------------|
--------------------------------|
-7-9-10-14-15-14-12-10-11-7-----|
--------------------------------|   x3
--------------------------------|
--------------------------------|

----------------------------|
----------------------------|
--12-12-10-10-9-9-10-10-12--|
----------------------------|
----------------------------|
----------------------------|


Intro Part 2
----------------------------------------------------------------|
----------------------------------------------------------------|
----------------------------------------------------------------|
-0-0---10-10-9---8---10-10-7---7---10-10-7----10-12-10-0--------|  x2
-0-0---8--8--7---8---8--8--9---7---8--8--9----8--10-8--7--------|
-0-0-------------8-------------7--------------------------------|

Verse
--------------------------------------------------------|
--------------------------------------------------------|
----10h9----10h9---10h9---------------------------------|
-0--------8------7------5-3--3-5------------------------|
-0--------8------7------5-3--3-5------------------------|
-0--------8------7------5-3--3-5------------------------|
listen for the srumming pattern
---------------------------------|
---------------------------------|
---10h9---10h9---10h9------------|
-0------8------7------3-5--------|
-0------8------7------3-5--------|
-0------8------7------3-5--------|

-----------------------------|
-----------------------------|
-----------------------------|
-3---7-----12--10--8---------| x2
-3---7-----12--10--8---------|
-3---7-----12--10--8---------|

Intro Part 2 again

---------------------------|
---------------------------|
---10-9--------------------|
--------10--x7--5--3-5-----|
----------------5--3-5-----|
----------------5--3-5-----|
same thing except instead of playing the 5's than 3's play it 3's then 5's

-----------------------------|
-----------------------------|
-----------------------------|
-3---7-----12--10--8---------|
-3---7-----12--10--8---------|
-3---7-----12--10--8---------|

Intro part 1 again but on the 10's palm mute


Outro
----------------------------------------|
----------------------------------------|
----------------------------------------|
--10-xxxx-7-xxxx-8-xxxx--7-8---8-7------|  x3
--10-xxxx-7-xxxx-8-xxxx--7-8---8-7------|
--10-xxxx-7-xxxx-8-xxxx--7-8---8-7------|


----------------------|
----------------------|
----------------------|
-0-0-0-0-0-0--8-8-----|  x2
-0-0-0-0-0-0--8-8-----|
-0-0-0-0-0-0--8-8-----|
 * * * * * *

----------------------------------------|
----------------------------------------|
----------------------------------------|
--10-xxxx-7-xxxx-8-xxxx--7-8---8-7------|  x3
--10-xxxx-7-xxxx-8-xxxx--7-8---8-7------|
--10-xxxx-7-xxxx-8-xxxx--7-8---8-7------|


----------------------|
----------------------|
----------------------|
-0-0-0-0-0-0--8-8-----|  x2
-0-0-0-0-0-0--8-8-----|
-0-0-0-0-0-0--8-8-----|
 * * * * * *

-------------------------------|
-------------------------------|
-------------------------------|
--10--7--8--7-8--8-7-----------|  x3
--10--7--8--7-8--8-7-----------|
--10--7--8--7-8--8-7-----------|


----------------------|
----------------------|
----------------------|
-0-0-0-0-0-0--8-8-----|  x4
-0-0-0-0-0-0--8-8-----|
-0-0-0-0-0-0--8-8-----|
 * * * * * *

--------------------------------|
--------------------------------|
--------------------------------|
-0-0-0-0-0--1-1-----------------|  x3
-0-0-0-0-0--1-1-----------------|
-0-0-0-0-0--1-1-----------------|
 * * * * *

----------------|
----------------|
----------------|
-0-0-0-0-0--0-0-|
-0-0-0-0-0--0-0-|
-0-0-0-0-0--0-0-|
 * * * * *  * *

Boy that was long but there it is. *sighs* wow that was long! okay hope you enjoy it!
Suggest correction
Give kudos to tab author, rate the tab!
1 2 3 4 5
comments
print report bad tab
1 comment total.
0 reply
housedimir66 10 May 01, 2009 08:00 AM

this ****ing sucks, listen to the song dumbass, you're wrong

guest
You may want to rate the tab now too:
select rating
Wanna post a correction for this tab? Suggest correction