Oops, an error
Loading. Please wait.

Fist Wrapped In Blood Tab

version 4
version 4

Whole song

Interactive

7,742 views 9 this week
14 commentsread comments
1 2 3 4 5
excellent!
x 13
add to favorites
launch autoscroll
font size
0
reset
how to read this tab
guitar tuner
Tab Pro tools
  • play this tab
  • loop segment
  • change instrument
  • show fretboard
  • metronome
×
Best way to learn
"Fist Wrapped In Blood"
Autoscroll
slow
fast
+/-
esc
set tempo
stop
Contributor
Difficulty
Tuning
novice
D A D G B E
Intro: Guitar 1
-------------5---6---5-----------|-------------------
-3-3-5p3-6p3---3---3---3-6p3-5h6-|-8-8-6-6-5-5-6-6-8-
---------------------------------|-------------------
---------------------------------|-------------------
---------------------------------|-------------------
---------------------------------|-------------------
play this thrice (x3)             then this at the end                        

Intro: Guitar 2 
-------------------------------------
-------------------------------------
-------------------------------------
-0~---------------8~-------10~----10-
-0~---------------8~-------10~----10-
-0~---------------8~-------10~----10-
                                                                              
Pre Verse (x2)
------------------------------------|-----------|------------
------------------------------------|-----------|------------
----10--10-9----10--10-9----10--10-9|-12-10-9-5-|-12-14-12-9-
-00-x---x--x-88-x---x--x-77-x---x--x|-x--x--x-x-|-x--x--x--x-
-00-8---8--7-88-8---8--7-77-8---8--7|-10-8--7-3-|-10-12-10-7-
-00----------88----------77---------|-----------|------------
Both Guitars                          Guitar 1    Guitar 2                    

1st Verse: Both Guitars 
-------------------------------------------------------------------------
-------------------------------------------------------------------------
--------------10p9--------------10p9--------------10p9-------------------
-000000000000------888888888888------777777777777------33333333-22222223-
-000000000000------888888888888------777777777777------33333333-22222223-
-000000000000------888888888888------777777777777------33333333-22222223-

-------------------------------------------------------------------------
-------------------------------------------------------------------------
--------------10p9--------------10p9--------------10p9-------------------
-000000000000------888888888888------777777777777------33333333-77777777-
-000000000000------888888888888------777777777777------33333333-77777777-
-000000000000------888888888888------777777777777------33333333-77777777-
 
                                                                              
Chorus: Both Guitars (x2)
--------------------------------------
--------------------------------------
-------------------7777-5555-33333333-
-33333333-55555555-7777-5555-33333333-
-33333333-33333333-5555-3333-11111111-
-33333333-22222222--------------------

Interlude (x2)
------------------------------------|-----------|------------
------------------------------------|-----------|------------
----10--10-9----10--10-9----10--10-9|-12-10-9-5-|-12-14-12-9-
-00-x---x--x-88-x---x--x-77-x---x--x|-x--x--x-x-|-x--x--x--x-
-00-8---8--7-88-8---8--7-77-8---8--7|-10-8--7-3-|-10-12-10-7-
-00----------88----------77---------|-----------|------------
Both Guitars                          Guitar 1    Guitar 2                    
 
2nd Verse: Guitar 1                                                                             
-------------------------------------------------------------------
-------------------------------------------------------------------
-----9-9h10-9--------9-9h10-9--------9-9h10-9----------------------
--------------10--------------10--------------10-33333333-22222222-
---0---------------8---------------7-------------33333333-22222222-
-0---------------8---------------7---------------33333333-22222222-

-------------------------------------------------------------------
-------------------------------------------------------------------
-----9-9h10-9--------9-9h10-9--------9-9h10-9----------------------
--------------10--------------10--------------10-33333333-77777777-
---0---------------8---------------7-------------33333333-77777777-
-0---------------8---------------7---------------33333333-77777777-
 
2nd Verse: Guitar 2                                                           
-------------------------------------------------------------------
------------------------------------------8h10-8-------------------
-9h10-9----------9h10-9----------9h10-9----------------------------
--------10~-------------10~------------10--------33333333-22222222-
-------------------------------------------------33333333-22222222-
-------------------------------------------------33333333-22222222-

-------------------------------------------------------------------
------------------------------------------8h10-8-------------------
-9h10-9----------9h10-9----------9h10-9----------------------------
--------10~-------------10~------------10--------33333333-77777777-
-------------------------------------------------33333333-77777777-
-------------------------------------------------33333333-77777777-

Chorus

Pre-Outro: Guitar 1
-------------5---6---5-----------|--------------------------------------
-3-3-5p3-6p3---3---3---3-6p3-5h6-|--------------------------------------
---------------------------------|--------------------------------------
---------------------------------|-10-----------------------------------
---------------------------------|-10-(x24-gradually release palm mute)-
---------------------------------|-10-----------------------------------
play this thrice (x3)             then this at the end                        

Pre-Outro: Guitar 2 
-------------------------------------
-------------------------------------
-------------------------------------
-0~---------------8~-------10~----10-
-0~---------------8~-------10~----10-
-0~---------------8~-------10~----10-

 
                                                                              
Outro: Guitar 1
------------------------------------------------
------------------------------------------------
-17--17-17-14--14-14-15--15-15-14-15-14--14-----\
-x---x--x--x---x--x--x---x--x--x--x--x---x--->3x-\
-15--15-15-12--12-12-13--13-13-12-13-12--12-/-----\
---------------------------------------------------\
                                               3
---------------------------------------------------/ times
--------------------------------------------------/
--------10101010101010-------101010101010--------/
-000000-x-x-x-x-x-x-x-000000-x-x-x-x-x-x--->1x--/
-000000-8-8-8-8-8-8-8-000000-8-8-8-8-8-8--/-----
-000000---------------000000--------------------
 ......               ......
                                                  
-------------------------------------------
-------------------------------------------
--------10101010101010-------101010101010-\
-000000-x-x-x-x-x-x-x-000000-x-x-x-x-x-x--->2x
-000000-8-8-8-8-8-8-8-000000-8-8-8-8-8-8--/
-000000---------------000000---------------
 ......               ...... 

Outro: Guitar 2
--------------------------------------------------
--------------------------------------------------
--------------------------------------------------
-8-888-888-888-887-777-777-777-778-888-888-888-88-\
-8-888-888-888-887-777-777-777-778-888-888-888-88-->3x
-8-888-888-888-887-777-777-777-778-888-888-888-88-/
                                                                              

------------------------------------------
------------------------------------------
--------10101010101010-------101010101010-
-000000-x-x-x-x-x-x-x-000000-x-x-x-x-x-x--
-000000-8-8-8-8-8-8-8-000000-8-8-8-8-8-8--
-000000---------------000000--------------
 ......               ......

--------------------------------------------------
--------------------------------------------------
--------------------------------------------------
-8-888-888-888-887-777-777-777-778-888-888-888-88-\
-8-888-888-888-887-777-777-777-778-888-888-888-88-->3x
-8-888-888-888-887-777-777-777-778-888-888-888-88-/
 
                                                                              
---------------------------------------------
---------------------------------------------
--------101010101010-------14-14-14-14-14-14-
-000000-x-x-x-x-x-x-000000-x--x--x--x--x--x--
-000000-8-8-8-8-8-8-000000-12-12-12-12-12-12-
-000000-------------000000-------------------
 ......             ......

--------------------------------------------------
--------------------------------------------------
--------------------------------------------------
-8-888-888-888-887-777-777-777-778-888-888-888-88-\
-8-888-888-888-887-777-777-777-778-888-888-888-88-->3x
-8-888-888-888-887-777-777-777-778-888-888-888-88-/
 
---------------------------------------------------
---------------------------------------------------
--------14-14-14-14-14-14--------14-14-14-14-14-14-\
-000000-x--x--x--x--x--x--000000-x--x--x--x--x--x--->3x
-000000-12-12-12-12-12-12-000000-12-12-12-12-12-12-/
-000000-------------------000000-------------------
 ......                   ......
                                                                             
Ending: (x3)     End on:
------------------|---------
------------------|---------
------------------|---------
-00-0-00-00000000-|-00-0-00-
-00-0-00-00000000-|-00-0-00-
-00-0-00-00000000-|-00-0-00-
 .. . .. ........   .. . ..
comments
print report bad tab
14 comments total. Showing first comments.
0 reply
12345678910 wrote on April 5 2006, 10:13 am

Good job. 5 stars.

0 reply
blacksg wrote on April 7 2006, 11:42 pm

This is almost if not almost exact, nice work i give 5 stars!!!

0 reply
jonathanonfire wrote on May 3 2006, 08:42 am

the second verse is wrong. you missed some of the variations in the song too. look to my tab for corrections... its 100% right. for the powertab PM me.

I want to post or [tab]
guest
You may want to rate the tab now too:
select rating
Please do not post tabs as comments. Select "correction" instead!