Oops, an error
Loading. Please wait.

Forever And A Day Bass Tab

version 1
version 1

Whole song

651 views 3 this week
no commentswrite comment
1 2 3 4 5
please rate
add to favorites
launch autoscroll
font size
0
reset
guitar tuner
Autoscroll
slow
fast
+/-
esc
set tempo
stop
Help us to improve Ultimate-Guitar.com Take our survey!
×
Author
++++++++++++++++++++++++++++++++++
| Silverstein- Forever And A Day |
++++++++++++++++++++++++++++++++++

Tuning: EADG

Intro. x2
1.
G|---------------------------------------------|
D|---------------------------------------------|
A|-0-000-0-00-2-222-2-22-0-000-0-00------------|
E|----------------------------------3-333-3-33-|

Verse
"I thought we'de be.." x2
2.
G|----------------------------------------------|
D|------------------4-2-0-----------------------|
A|-0-000-0-00-2-222-------0-000-0-00------------|
E|-----------------------------------3-333-3-33-|

Chorus     
3.
G|----------------------------------------|---|
D|----------------------------------------|   |---x3
A|-0000000x--2222222x--0000000000---------|   |
E|-------------------------------33333333-|---|

4.
G|-----------------------------------------------|
D|----------4-2-0-------4-2-0--------------------|
A|-0000000x------222222-------00000000000--------|
E|---------------------------------------3333333-|

"Think..."
5.
G|---------------------------------------------|
D|---------------------------------------------|
A|-0-000-0-00-2-222-2-22-0-000-0-00------------|
E|----------------------------------3-333-3-33-|

6.
G|----------------------------------------------|
D|------------------4-2-0-----------------------|
A|-0-000-0-00-2-222-------0-000-0-00------------|
E|-----------------------------------3-333-3-33-|

7.
G|---------------------------------------------|
D|---------------------------------------------|
A|-0-000-0-00-2-222-2-22-0-000-0-00------------|
E|----------------------------------3-333-3-33-|

8.
G|----------------------------------------------|
D|------------------4-2-0-----------------------|
A|-0-000-0-00-2-222-------0-000-0-00------------|
E|-----------------------------------3-333-3-33-|

Chorus
9.
G|----------------------------------------|---|
D|----------------------------------------|   |---x3
A|-0000000x--2222222x--0000000000---------|   |
E|-------------------------------33333333-|---|

10.
G|-----------------------------------------------|
D|----------4-2-0-------4-2-0--------------------|
A|-0000000x------222222-------00000000000--------|
E|---------------------------------------3333333-|

11.
G|--------------------------|
D|--------------------------|
A|-0~------2~------0~-------|
E|-----------------------3~-|

12.
G|--------------------------------------|
D|-----------------------5~-5-7-5-4~-0~-|
A|-0~------2~------3~-------------------|
E|--------------------------------------|

Repeat that 

"Just how good I was.." x2
13.
G|---------------------------------------------------|
D|---------------------------------------------------|
A|-0-00000-00000-00000-0000-3-33333-33333-33333-3333-|
E|---------------------------------------------------|

"Together! Forever!!.."
14.
G|----------------------------------------------|
D|----------------------------------------------|
A|-000x-000x-000x-000x-333333333333333333333333-|
E|----------------------------------------------|

15.
G|--------------------------------------------------|
D|--------------------------------------------------|
A|-000000000000000000000000333333333333333333333333-|
E|--------------------------------------------------|

Here's where poem starts..
16.
G|--------------------------------------------------------------------------------------|
D|----------------------------------------------------------------5555555555-4444444444-|
A|-00000000000000000000-22222222222222222222-33333333333333333333-----------------------|
E|--------------------------------------------------------------------------------------|

Lyrics
+++++++++++++++++++++++++++++++

I thought we'd be together forever. 
But it seems I was wrong and everything's fallen apart. 
Think of what I've done for you. 
Think of all that we've been through. 
I hope every time he breaks your heart 
you think of me and how I was to you. 
Everything's fallen apart. 
One day you'll see just how good I was. 
And I thought that we'd be together forever.

++++++++++++++++++++++++++++++++

+++++++++++++++++++++++++++++++++
| RaiLeff                       | 
| Underground__Dora@hotmail.com |
+++++++++++++++++++++++++++++++++
Suggest correction
Give kudos to tab author, rate the tab!
1 2 3 4 5
comments
print report bad tab
guest
You may want to rate the tab now too:
select rating
Please do not post tabs as comments. Select "correction" instead!