Oops, an error
Loading. Please wait.

Friends In Fall River tab

version 2
version 2

Whole song

2,232 views 1 this week
3 commentsread comments
1 2 3 4 5
x 6
add to favorites
×
Save as Personal and add changes to this tab that will be seen only by you. Learn more ›
×
You can save this tab as Personal to edit and correct it or add notes. All changes will be seen only by you. Learn more »
launch autoscroll
font size
0
reset
how to read this tab
guitar tuner
edit
Autoscroll
slow
fast
+/-
esc
set tempo
stop
Difficulty
intermediate
I love this song but couldn't find a good tabs so i made my own tab. It's 99percent 
Some of the strumming in the end is wrong. Silverstein rocks!

Intro Part 1: Guitar 1
e|------------------------------------------------------------|
B|------------------------------------------------------------|
G|-111111111-9-9-9-9-9-9-999999-1111--------------------------|
D|-9-9-9-9-9-11111111111-777777-1313-13h14p13-----------------|
A|---.-.---.---.-.---.----..-.---.-.--------------------------|
E|------------------------------------------------------------|

Guitar 1
e|------------------------------------------------------------|
B|------------------------------------------------------------|
G|-111111111-9-9-9-9-9-9-999999-1111--------------------------|
D|-9-9-9-9-9-11111111111-777777-1313-13h14p13-----------------|
A|---.-.---.---.-.---.----..-.---.-.--------------------------|
E|------------------------------------------------------------|

Guitar 1
e|------------------------------------------------------------|
B|------------------------------------------------------------|
G|-111111111-9-9-9-9-9-9-999999-1111--------------------------|
D|-9-9-9-9-9-11111111111-777777-1313-13h14p13-----------------|
A|---.-.---.---.-.---.----..-.---.-.--------------------------|
E|------------------------------------------------------------|

Guitar 1
e|------------------------------------------------------------|
B|------------------------------------------------------------|
G|-111111111-9-9-9-9-9-9-999999-1111--------------------------|
D|-9-9-9-9-9-11111111111-777777-1313-13h14p13-----------------|
A|---.-.---.---.-.---.----..-.---.-.--------------------------|
E|------------------------------------------------------------|

Guitar 1
e|-7*-----------------------7*--7*--7*--7*--------------------|
B|-7*-------------------------7*--7*--7*----------------------|
G|------------------------------------------------------------|
D|------------------------------------------------------------|
A|------------------------------------------------------------|
E|------------------------------------------------------------|

Guitar 1
e|-14-12-11-12-11---------------------------------------------|
B|----------------12~-----------------------------------------|
G|------------------------------------------------------------|
D|------------------------------------------------------------|
A|------------------------------------------------------------|
E|------------------------------------------------------------|

Guitar 1
e|-1414-1212-1111--12121212\----------------------------------|
B|------------------------------------------------------------|
G|------------------------------------------------------------|
D|------------------------------------------------------------|
A|------------------------------------------------------------|
E|------------------------------------------------------------|

Intro Part 2: Guitar 2
e|------------------------------------------------------------|
B|------------------------------------------------------------|
G|------------------------------------------------------------|
D|-99-77-1111-777-9977-99-77-1111-----------------------------|
A|-99-77-1111-777-9977-99-77-1111-----------------------------|
E|-77-55--9-9-555-7755-77-55--9-9-----------------------------|
Guitar 2
e|------------------------------------------------------------|
B|--------------------------------9h10p9h10p9-----------------|
G|--------------------------------------------9-8~------------|
D|-99-77-1111-777-9977-99-77-1111-----------------------------|
A|-99-77-1111-777-9977-99-77-1111-----------------------------|
E|-77-55--9-9-555-7755-77-55--9-9-----------------------------|
Guitar 2
e|------------------------------------------------------------|
B|------------------------------------------------------------|
G|------------------------------------------------------------|
D|-99-77-1111-777-9977-99-77-1111-x-x-x--x-x-x----------------|
A|-99-77-1111-777-9977-99-77-1111-x-x-x--x-x-x----------------|
E|-77-55--9-9-555-7755-77-55--9-9-x-x-x--x-x-x----------------|
Guitar 2
e|------------------------------------------------------------|
B|------------------------------------------------------------|
G|------------------------------------------------------------|
D|-99-77-1111-777-9977-99-77-1111~~---------------------------|
A|-99-77-1111-777-9977-99-77-1111~~---------------------------|
E|-77-55--9-9-555-7755-77-55--9-9~~---------------------------|

Verse: Guitar 1
e|------------------------------------------------------------|
B|------------------------------------------------------------|
G|---------9--------------9----/-11---------------------------|
D|-9-9-----x-x16--9-9-----x-x8-/--x-x8------------------------|
A|-9-9-x15-7------9-9-x15-7----/--9---------------------------|
E|-7-7------------7-7-----------------------------------------|
     .              .
Guitar 1
e|------------------------------------------------------------|
B|------------------------------------------------------------|
G|---------9--------------9----/-11---------------------------|
D|-9-9-----x-x16--9-9-----x-x8-/--x-x8------------------------|
A|-9-9-x15-7------9-9-x15-7----/--9---------------------------|
E|-7-7------------7-7-----------------------------------------|
     .              .
Guitar 2
e|------------------------------------------------------------|
B|------------------------------------------------------------|
G|------------------------------------------------------------|
D|-99-77-1111-777-9977-99-77-1111-----------------------------|
A|-99-77-1111-777-9977-99-77-1111-----------------------------|
E|-77-55--9-9-555-7755-77-55--9-9-----------------------------|

Guitar 2
e|------------------------------------------------------------|
B|--------------------------------9h10p9h10p9-----------------|
G|--------------------------------------------9-8~------------|
D|-99-77-1111-777-9977-99-77-1111-----------------------------|
A|-99-77-1111-777-9977-99-77-1111-----------------------------|
E|-77-55--9-9-555-7755-77-55--9-9-----------------------------|
Guitar 2
e|------------------------------------------------------------|
B|------------------------------------------------------------|
G|------------------------------------------------------------|
D|-99-77-1111-777-9977-99-77-1111-x-x-x--x-x-x----------------|
A|-99-77-1111-777-9977-99-77-1111-x-x-x--x-x-x----------------|
E|-77-55--9-9-555-7755-77-55--9-9-x-x-x--x-x-x----------------|
Guitar 2
e|------------------------------------------------------------|
B|------------------------------------------------------------|
G|------------------------------------------------------------|
D|-99-77-1111-777-9977-99-77-1111~~---------------------------|
A|-99-77-1111-777-9977-99-77-1111~~---------------------------|
E|-77-55--9-9-555-7755-77-55--9-9~~---------------------------|

e|------------------------------------------------------------|
B|------------------------------------------------------------|
G|-111111111-9-9-9-9-9-9-999999-1111--------------------------|
D|-9-9-9-9-9-11111111111-777777-1313-13h14p13-----------------|
A|---.-.---.---.-.---.----..-.---.-.--------------------------|
E|------------------------------------------------------------|

Guitar 2
e|------------------------------------------------------------|
B|------------------------------------------------------------|
G|-111111111-9-9-9-9-9-9-999999-1111--------------------------|
D|-9-9-9-9-9-11111111111-777777-1313-13h14p13-----------------|
A|---.-.---.---.-.---.----..-.---.-.--------------------------|
E|------------------------------------------------------------|

Guitar 2
e|------------------------------------------------------------|
B|------------------------------------------------------------|
G|-111111111-9-9-9-9-9-9-999999-1111--------------------------|
D|-9-9-9-9-9-11111111111-777777-1313-13h14p13-----------------|
A|---.-.---.---.-.---.----..-.---.-.--------------------------|
E|------------------------------------------------------------|

Guitar 2
e|------------------------------------------------------------|
B|------------------------------------------------------------|
G|-111111111-9-9-9-9-9-9-999999-1111--------------------------|
D|-9-9-9-9-9-11111111111-777777-1313-13h14p13-----------------|
A|---.-.---.---.-.---.----..-.---.-.--------------------------|
E|------------------------------------------------------------|

Guitar 1
e|-7*--7*--7*-------------------------------------------------|
B|---7*--7*--7*-x4--------------------------------------------|
G|------------------------------------------------------------|
D|------------------------------------------------------------|
A|------------------------------------------------------------|
E|------------------------------------------------------------|

Guitar 1
e|-14-12-11-12-11---------------------------------------------|
B|---------------12~------------------------------------------|
G|------------------------------------------------------------|
D|------------------------------------------------------------|
A|------------------------------------------------------------|
E|------------------------------------------------------------|
Guitar 1
e|-14-12-11-12-11h12p11h12------------------------------------|
B|------------------------------------------------------------|
G|------------------------------------------------------------|
D|------------------------------------------------------------|
A|------------------------------------------------------------|
E|------------------------------------------------------------|
Guitar 1
e|-14-12-11-12-11---------------------------------------------|
B|----------------12~-----------------------------------------|
G|------------------------------------------------------------|
D|------------------------------------------------------------|
A|------------------------------------------------------------|
E|------------------------------------------------------------|
Guitar 1
e|-1414-1212-1111--12121212\----------------------------------|
B|------------------------------------------------------------|
G|------------------------------------------------------------|
D|------------------------------------------------------------|
A|------------------------------------------------------------|
E|------------------------------------------------------------|
Guitar 2
e|------------------------------------------------------------|
B|------------------------------------------------------------|
G|------------------------------------------------------------|
D|-99-77-1111-777-9977-99-77-1111-----------------------------|
A|-99-77-1111-777-9977-99-77-1111-----------------------------|
E|-77-55--9-9-555-7755-77-55--9-9-----------------------------|
Guitar 2
e|------------------------------------------------------------|
B|--------------------------------9h10p9h10p9-----------------|
G|--------------------------------------------9-8~------------|
D|-99-77-1111-777-9977-99-77-1111-----------------------------|
A|-99-77-1111-777-9977-99-77-1111-----------------------------|
E|-77-55--9-9-555-7755-77-55--9-9-----------------------------|
Guitar 2
e|------------------------------------------------------------|
B|------------------------------------------------------------|
G|------------------------------------------------------------|
D|-99-77-1111-777-9977-99-77-1111-x-x-x--x-x-x----------------|
A|-99-77-1111-777-9977-99-77-1111-x-x-x--x-x-x----------------|
E|-77-55--9-9-555-7755-77-55--9-9-x-x-x--x-x-x----------------|
Guitar 2
e|------------------------------------------------------------|
B|------------------------------------------------------------|
G|------------------------------------------------------------|
D|-99-77-1111-777-9977-99-77-2-2~~----------------------------|
A|-99-77-1111-777-9977-99-77-2-2~~----------------------------|
E|-77-55--9-9-555-7755-77-55-0-0~~----------------------------|
Guitar 1
e|------------------------------------------------------------|
B|------------------------------------------------------------|
G|-/-9~~-------------9-9-9------------------------------------|
D|-/-x~~-------------x-x-x------------------------------------|
A|-/-7~~-------------7-7-7------------------------------------|
E|------------------------------------------------------------|
Guitar 2
e|------------------------------------------------------------|
B|------------------------------------------------------------|
G|-/-13~~--/-16~~---------------------------------------------|
D|-/--x~~--/--x~~---------------------------------------------|
A|-/-11~~--/-14~~---------------------------------------------|
E|------------------------------------------------------------|

Guitar 1
e|------------------------------------------------------------|
B|------------------------------------------------------------|
G|-6-----8---/-9---\-8----------------------------------------|
D|-x-x16-x-x8/-x-x4\-x-x4-------------------------------------|
A|-4-----6---/-7---\-6----------------------------------------|
E|------------------------------------------------------------|
Guitar 1
e|------------------------------------------------------------|
B|-141414-131313-141414-131313-13/14~~--16~~------------------|
G|--x-x-x--x-x-x--x-x-x--x-x-x--x--x-----x~~------------------|
D|-121212-111111-121212-111111-11/12~~--14~~------------------|
A|------------------------------------------------------------|
E|------------------------------------------------------------|

Guitar 1
e|------------------------------------------------------------|
B|------------------------------------------------------------|
G|-6-----8---/-9---\-8----------------------------------------|
D|-x-x16-x-x8/-x-x4\-x-x4-------------------------------------|
A|-4-----6---/-7---\-6----------------------------------------|
E|------------------------------------------------------------|
Guitar 1
e|------------------------------------------------------------|
B|-141414-131313-141414-131313-13/14~~--16~~------------------|
G|--x-x-x--x-x-x--x-x-x--x-x-x--x--x-----x~~------------------|
D|-121212-111111-121212-111111-11/12~~--14~~------------------|
A|------------------------------------------------------------|
E|------------------------------------------------------------|

e|-12----14----16----14----12----14----16----14p12------------|
B|----12----12----12----12----12----12----12-------12---------|
G|------------------------------------------------------------|
D|------------------------------------------------------------|
A|------------------------------------------------------------|
E|------------------------------------------------------------|
Cont
e|-12----14----16----14----1414141414141414---1616161616161616|
B|----12----12----12----12------------------12----------------|
G|------------------------------------------------------------|
D|------------------------------------------------------------|
A|------------------------------------------------------------|
E|------------------------------------------------------------|

Guitar 1
e|------------------------------------------------------------|
B|------------------------------------------------------------|
G|-6-----8---/-9---\-8----------------------------------------|
D|-x-x16-x-x8/-x-x4\-x-x4-------------------------------------|
A|-4-----6---/-7---\-6----------------------------------------|
E|------------------------------------------------------------|

Guitar 1
e|------------------------------------------------------------|
B|-141414-131313-141414-131313-13/14~~--16-9-6~~--------------|
G|--x-x-x--x-x-x--x-x-x--x-x-x--x--x~~---x-x-x~~--------------|
D|-121212-111111-121212-111111-11/12~~--14-7-4~~--------------|
A|------------------------------------------------------------|
E|------------------------------------------------------------|

.= Palm mute
/\= Slide
x= don't play
~= let string ring
h= hammer on
p= pull off
*= harmonics
Suggest correction
Creating personal tab
Creating personal tab
You can edit any tab online and save it as your Personal.

You can edit, replace or remove any tab part or add personal notes – all changes will be seen only by you.

Personal tabs can be accessed anytime from any device, even offline.
Learn more »
comments
print report bad tab
3 comments total.
0 reply
NickUG 10 Dec 03, 2006 11:47 AM

Overall amazing tab but i think for these parts they should end like this
e|------------------------------------------------------------|
B|------------------------------------------------------------|
G|-111111111-9-9-9-9-9-9-999999-1111---9h11-------------------|
D|-9-9-9-9-9-11111111111-777777-1313-13-----------------------|
A|---.-.---.---.-.---.----..-.---.-.--------------------------|
E|------------------------------------------------------------|

0 reply
Chiodos_SG400 109 Jun 27, 2007 08:00 PM

i think its good they way it was but this is as well

0 reply
Doofus42 30 Mar 11, 2009 06:35 AM

for the harmoniccs part in the intro, shouldn't it be
e|12*-----------------12*--12*--12*--12*-|
B|12*-------------------12*--12*--12*----|

guest
Wanna post a correction for this tab? Suggest correction