Oops, an error
Loading. Please wait.

Ghost Tab

version 1
version 1

Whole song

Interactive

676 views 48 this week
2 commentsread comments
1 2 3 4 5
x 3
add to favorites
launch autoscroll
font size
0
reset
how to read this tab
guitar tuner
Autoscroll
slow
fast
+/-
esc
set tempo
stop
Help us to improve Ultimate-Guitar.com Take our survey!
×
Author
Difficulty
Tuning
intermediate
C G C F A D
Tabbed by: Joshua Garcia (joshuag523@aol.com)

Tabs for the song: Ghost by Silverstein
Please rate and let me know if you have any corrections. Thank you.


Tuning: Drop C (C G C F A D)


[Intro]
Guitar 1/2:
D||----------------------------|--------------------------------|
A||-------------------------2--|---------------------------7~---|
F||-------------------------2--|---------------------------9b~--|
C||--4---7\4---x-x-x-x-x-------|--0---0-0~--------3---3-3-------|
G||--4---7\4---x-x-x-x-x-'5----|--0---0-0~--------3---3-3-------|
C||--4---7\4---x-x-x-x-x-------|--0---0-0~--------3---3-3-------|


D||----------------------------|--------------------------------|
A||-------------------------2--|--------------------------------|
F||-------------------------2--|--------------------------------|
C||--4---7\4---x-x-x-x-x-x-----|--0---0-0~--------3---3-3-------|
G||--4---7\4---x-x-x-x-x-x-----|--0---0-0~--------3---3-3-------|
C||--4---7\4---x-x-x-x-x-x-----|--0---0-0~--------3---3-3-------|



[Pre-Verse]
Guitar 1/2:
D||----------------------------|--------------------------------|
A||-------------------------2--|---------------------------7~---|
F||-------------------------2--|---------------------------9b~--|
C||--4---7\4---x-x-x-x-x-------|--0---0-0~--------3---3-3-------|
G||--4---7\4---x-x-x-x-x-'5----|--0---0-0~--------3---3-3-------|
C||--4---7\4---x-x-x-x-x-------|--0---0-0~--------3---3-3-------|


D||----------------------------|--------------------------------|
A||----------------------------|--------------------------------|
F||----------------------------|--------------------------------|
C||--4---7\4-------------------|--0---0-0~----------------------|
G||--4---7\4---'5-'5-'5-/9--9--|--0---0-0~----------------------|
C||--4---7\4-------------------|--0---0-0~-------3-3-3-7-7-5-5--|



[Verse]
Guitar 1/2:
D||-------------------------------------------------------------------|
A||-------------------------------------------------------------------|
F||-------------------------------------------------------------------|
C||-------------------------------------------------------------------|
G||-------------------------------------------------------------------|
C||--4-4-4-4-4-4-4-4-4-4-4-4-4-4-4-4-4-4-4-4-4-4-4-4-4-4-4-4-4-4-4-4--|


D||-------------------------------------------------------------------|
A||-------------------------------------------------------------------|
F||-------------------------------------------------------------------|
C||-------------------------------------------------------------------|
G||----------------------------------2-2-2-2-2-2-2-2-2-2-2-2-2-2-2-2--|
C||--0-0-0-0-0-0-0-0-0-0-0-0-0-0-0-0----------------------------------|


D||-------------------------------------------------------------------|
A||-------------------------------------------------------------------|
F||-------------------------------------------------------------------|
C||-------------------------------------------------------------------|
G||-------------------------------------------------------------------|
C||--4-4-4-4-4-4-4-4-4-4-4-4-4-4-4-4-4-4-4-4-4-4-4-4-4-4-4-4-4-4-4-4--|


D||---------------------------------------------------------------|
A||---------------------------------------------------------------|
F||---------------------------------------------------------------|
C||---------------------------------------------------------------|
G||----------------------------------2-2-2-2-2-2-2-2-2-2-2-2-2-2--|
C||--0-0-0-0-0-0-0-0-0-0-0-0-0-0-0-0------------------------------|



[Chorus]
Guitar 1:
D||-------------------------------------------------------|
A||-------------------------------------------------------|
F||--14---14---14-14---16---18-14---14---14-14---16---18--|
C||--x----x----x--x----x----x--x----x----x--x----x----x---|
G||--12---12---12-12---14---16-12---12---12-12---14---16--|
C||-------------------------------------------------------|


D||-------------------------------------------------------|
A||-------------------------------------------------------|
F||--16---16---16-16---16---16-16---16---16-13---13---13--|
C||--x----x----x--x----x----x--x----x----x--x----x----x---|
G||--14---14---14-14---14---14-14---14---14-11---11---11--|
C||-------------------------------------------------------|


D||-------------------------------------------------------|
A||-------------------------------------------------------|
F||--14---14---14-14---16---18-14---14---14-14---16---18--|
C||--x----x----x--x----x----x--x----x----x--x----x----x---|
G||--12---12---12-12---14---16-12---12---12-12---14---16--|
C||-------------------------------------------------------|


D||------------------------------------------|
A||------------------------------------------|
F||--16---16---16-16---16---16-16---16---16--|
C||--x----x----x--x----x----x--x----x----x---|
G||--14---14---14-14---14---14-14---14---14--|
C||------------------------------------------|


Guitar 2:
D||-----------------------------------------------------------------------------------|
A||-----------------------------------------------------------------------------------|
F||--7---7---7-7---7---7---------------------------------------------------6---6---6--|
C||--7---7---7-7---7---7-4---4---4-4---4---4-2---2---2-2---2---2-2---2---2-6---6---6--|
G||--5---5---5-5---5---5-4---4---4-4---4---4-2---2---2-2---2---2-2---2---2-4---4---4--|
C||----------------------4---4---4-4---4---4-2---2---2-2---2---2-2---2---2------------|


D||-------------------------------------------------------------------------|
A||-------------------------------------------------------------------------|
F||--7---7---7-7---7---7----------------------------------------------------|
C||--7---7---7-7---7---7-4---4---4-4---4---4-2---2---2-2---2---2-2---2---2--|
G||--5---5---5-5---5---5-4---4---4-4---4---4-2---2---2-2---2---2-2---2---2--|
C||----------------------4---4---4-4---4---4-2---2---2-2---2---2-2---2---2--|


Guitar 1/2:
D||-------------------|
A||-------------------|
F||-------------------|
C||--------------7-7--|
G||--------------7-7--|
C||--7-7-7-7-7-7-7-7--|
     . . . . . .



[Pre-Verse]
Guitar 1/2:
D||----------------------------|--------------------------------|
A||-------------------------2--|---------------------------7~---|
F||-------------------------2--|---------------------------9b~--|
C||--4---7\4---x-x-x-x-x-------|--0---0-0~--------3---3-3-------|
G||--4---7\4---x-x-x-x-x-'5----|--0---0-0~--------3---3-3-------|
C||--4---7\4---x-x-x-x-x-------|--0---0-0~--------3---3-3-------|


D||----------------------------|--------------------------------|
A||----------------------------|--------------------------------|
F||----------------------------|--------------------------------|
C||--4---7\4-------------------|--0---0-0~----------------------|
G||--4---7\4---'5-'5-'5-/9--9--|--0---0-0~----------------------|
C||--4---7\4-------------------|--0---0-0~-------3-3-3-7-7-5-5--|



[Verse]
Guitar 1/2:
D||-------------------------------------------------------------------|
A||-------------------------------------------------------------------|
F||-------------------------------------------------------------------|
C||-------------------------------------------------------------------|
G||-------------------------------------------------------------------|
C||--4-4-4-4-4-4-4-4-4-4-4-4-4-4-4-4-4-4-4-4-4-4-4-4-4-4-4-4-4-4-4-4--|


D||-------------------------------------------------------------------|
A||-------------------------------------------------------------------|
F||-------------------------------------------------------------------|
C||-------------------------------------------------------------------|
G||----------------------------------2-2-2-2-2-2-2-2-2-2-2-2-2-2-2-2--|
C||--0-0-0-0-0-0-0-0-0-0-0-0-0-0-0-0----------------------------------|


D||-------------------------------------------------------------------|
A||-------------------------------------------------------------------|
F||-------------------------------------------------------------------|
C||-------------------------------------------------------------------|
G||-------------------------------------------------------------------|
C||--4-4-4-4-4-4-4-4-4-4-4-4-4-4-4-4-4-4-4-4-4-4-4-4-4-4-4-4-4-4-4-4--|


D||---------------------------------------------------------------|
A||---------------------------------------------------------------|
F||---------------------------------------------------------------|
C||---------------------------------------------------------------|
G||----------------------------------2-2-2-2-2-2-2-2-2-2-2-2-2-2--|
C||--0-0-0-0-0-0-0-0-0-0-0-0-0-0-0-0------------------------------|



[Chorus]
Guitar 1:
D||-------------------------------------------------------|
A||-------------------------------------------------------|
F||--14---14---14-14---16---18-14---14---14-14---16---18--|
C||--x----x----x--x----x----x--x----x----x--x----x----x---|
G||--12---12---12-12---14---16-12---12---12-12---14---16--|
C||-------------------------------------------------------|


D||-------------------------------------------------------|
A||-------------------------------------------------------|
F||--16---16---16-16---16---16-16---16---16-13---13---13--|
C||--x----x----x--x----x----x--x----x----x--x----x----x---|
G||--14---14---14-14---14---14-14---14---14-11---11---11--|
C||-------------------------------------------------------|


D||-------------------------------------------------------|
A||-------------------------------------------------------|
F||--14---14---14-14---16---18-14---14---14-14---16---18--|
C||--x----x----x--x----x----x--x----x----x--x----x----x---|
G||--12---12---12-12---14---16-12---12---12-12---14---16--|
C||-------------------------------------------------------|


D||--------------------------------------------------------------------|
A||--------------------------------------------------------------------|
F||--16---16---16-16---16---16-16---16---16---13-13-13-13-13-13-14-14--|
C||--x----x----x--x----x----x--x----x----x----x--x--x--x--x--x--x--x---|
G||--14---14---14-14---14---14-14---14---14---11-11-11-11-11-11-12-12--|
C||--------------------------------------------------------------------|


Guitar 2:
D||-----------------------------------------------------------------------------------|
A||-----------------------------------------------------------------------------------|
F||--7---7---7-7---7---7---------------------------------------------------6---6---6--|
C||--7---7---7-7---7---7-4---4---4-4---4---4-2---2---2-2---2---2-2---2---2-6---6---6--|
G||--5---5---5-5---5---5-4---4---4-4---4---4-2---2---2-2---2---2-2---2---2-4---4---4--|
C||----------------------4---4---4-4---4---4-2---2---2-2---2---2-2---2---2------------|


D||-------------------------------------------------------------------------------------------|
A||-------------------------------------------------------------------------------------------|
F||--7---7---7-7---7---7-----------------------------------------------------6-6-6-6-6-6-6-6--|
C||--7---7---7-7---7---7-4---4---4-4---4---4-2---2---2-2---2---2-2---2---2---6-6-6-6-6-6-6-6--|
G||--5---5---5-5---5---5-4---4---4-4---4---4-2---2---2-2---2---2-2---2---2---4-4-4-4-4-4-4-4--|
C||----------------------4---4---4-4---4---4-2---2---2-2---2---2-2---2---2--------------------|



[Bridge]
Guitar 1:
D||---------------------------------------------------------|
A||---------------/17---17---19--------------/17---17---19--|
F||--11---11---11-/x----x----x--14---14---14-/x----x----x---|
C||--x----x----x--/14---14---16-x----x----x--/14---14---16--|
G||--9----9----9----------------12---12---12----------------|
C||---------------------------------------------------------|


D||-----------------------------17-----------17-------------|
A||---------------/17---17---19-x----17---19-x----17---19---|
F||--18---18---18-/x----x----x--14---x----x--14---x----x----|
C||--x----x----x--/14---14---16------14---16------14---16---|
G||--16---16---16-------------------------------------------|
C||---------------------------------------------------------|


D||---------------------------------------------------------|
A||---------------/17---17---19--------------/17---17---19--|
F||--11---11---11-/x----x----x--14---14---14-/x----x----x---|
C||--x----x----x--/14---14---16-x----x----x--/14---14---16--|
G||--9----9----9----------------12---12---12----------------|
C||---------------------------------------------------------|


D||-----------------------------17-----------17~-------|
A||---------------/17---17---19-x----17---19-x---------|
F||--18---18---18-/x----x----x--14---x----x--14~--br~--|
C||--x----x----x--/14---14---16------14---16-----------|
G||--16---16---16--------------------------------------|
C||----------------------------------------------------|


Guitar 2:
D||--------------------------------------------------------------------------|
A||--------------------------------------------------------------------------|
F||--------------------------------------------------------------------------|
C||--0---0---0--------4---4---4--------7---7---7--------2---2---2------------|
G||--0---0---0--------4---4---4--------7---7---7--------2---2---2-4---4---4--|
C||--0---0---0--------4---4---4--------7---7---7--------2---2---2------------|


D||--------------------------------------------------------------------------|
A||--------------------------------------------------------------------------|
F||--------------------------------------------------------------------------|
C||------0---0--------4---4---4--------7---7---7--------2---2---2-2----------|
G||--5\--0---0--------4---4---4--------7---7---7--------2---2---2-2----------|
C||------0---0--------4---4---4--------7---7---7--------2---2---2-2---3\-----|



[Main Riff]
Guitar 1 (Left):
D||------------------------------|--------------------------------|
A||---------------------------2--|---------------------------7~---|
F||---------------------------2--|---------------------------9b~--|
C||--4-4---7\4---x-x-x-x-x-------|--0---0-0~--------3---3-3-------|
G||--4-4---7\4---x-x-x-x-x-'5----|--0---0-0~--------3---3-3-------|
C||--4-4---7\4---x-x-x-x-x-------|--0---0-0~--------3---3-3-------|


Guitar 2 (Right):
D||------------------------------|--------------------------------|
A||---------------------------2--|---------------------------7~---|
F||---------------------------2--|---------------------------9b~--|
C||--4-4---7\4---x-x-x-x-x-x-----|--0---0-0~--------3---3-3-------|
G||--4-4---7\4---x-x-x-x-x-x-----|--0---0-0~--------3---3-3-------|
C||--4-4---7\4---x-x-x-x-x-x-----|--0---0-0~--------3---3-3-------|


Guitar 1/2:
D||------------------------------|--------------------------------|
A||---------------------------2--|---------------------------7~---|
F||---------------------------2--|---------------------------9b~--|
C||--4-4---7\4---x-x-x-x-x-------|--0---0-0---0-----3---3-3-------|
G||--4-4---7\4---x-x-x-x-x-'5----|--0---0-0---0-----3---3-3-------|
C||--4-4---7\4---x-x-x-x-x-------|--0---0-0---0-----3---3-3-------|


D||------------------------------|---------------|
A||---------------------------2--|---------------|
F||---------------------------2--|---------------|
C||--4-4---7\4---x-x-x-x-x-------|--0---0-0---0--|
G||--4-4---7\4---x-x-x-x-x-'5----|--0---0-0---0--|
C||--4-4---7\4---x-x-x-x-x-------|--0---0-0---0--|



[Breakdown]
Guitar 1/2:
D||-----------------------------|-------------------------------|
A||-----------------------------|---------------------------'5--|
F||--------------2-2-2-2-2-2-2--|-------------------------------|
C||--4-4---2-4---5b7-7-7-7-7-7--|--0---0-0~--------3---3-3------|
G||--4-4---2-4------------------|--0---0-0~--------3---3-3------|
C||--4-4---2-4------------------|--0---0-0~--------3---3-3------|


D||-----------------------------|-------------------------------|
A||--------------2-2-2-2-2-2~---|-------------------------------|
F||--------------4b6-6-6-6-6rp2-|-------------------------------|
C||--2-4---7-4------------------|--0---0-0~---------------------|
G||--2-4---7-4------------------|--0---0-0~--------8-8-8-8-8-8--|
C||--2-4---7-4------------------|--0---0-0~----3~/--------------|


D||-----------------------------|-------------------------------|
A||-----------------------------|---------------------------'5--|
F||--------------2-2-2-2-2-2-2--|-------------------------------|
C||--4-----2-4---5b7-7-7-7-7-7--|--0---0-0~--------3---3-3------|
G||--4-----2-4------------------|--0---0-0~--------3---3-3------|
C||--4-----2-4------------------|--0---0-0~--------3---3-3------|


D||-----------------------------|---------------------------------|
A||--------------2-2-2-2-2-2~---|---------------------------------|
F||--------------4b6-6-6-6-6rp2-|---------------------------------|
C||--2-4---7-4------------------|--0---0-0~--------3---3-3-x-x-x--|
G||--2-4---7-4------------------|--0---0-0~--------3---3-3-x-x-x--|
C||--2-4---7-4------------------|--0---0-0~--------3---3-3-x-x-x--|


D||-----------------------------|-------------------------------|
A||-----------------------------|---------------------------'5--|
F||--------------2-2-2-2-2-2-2--|-------------------------------|
C||--x-x-x-x-4---5b7-7-7-7-7-7--|--0---0-0~--------3---3-3------|
G||--x-x-x-x-4------------------|--0---0-0~--------3---3-3------|
C||--x-x-x-x-4------------------|--0---0-0~--------3---3-3------|


D||-----------------------------|-------------------------------|
A||--------------2-2-2-2-2-2~---|-------------------------------|
F||--------------4b6-6-6-6-6rp2-|-------------------------------|
C||--2-4---7-4------------------|--0---0-0~--------3---3-3---3--|
G||--2-4---7-4------------------|--0---0-0~--------3---3-3---3--|
C||--2-4---7-4------------------|--0---0-0~--------3---3-3---3--|



[Interlude]
Guitar 1:
D||-------------------|
A||-------------------|
F||--11~--------/14~--|
C||--x----------/x----|
G||--9~---------/12~--|
C||-------------------|


Guitar 2:
D||-------------------|
A||-------------------|
F||-------------------|
C||--4~---------/7~---|
G||--4~---------/7~---|
C||--4~---------/7~---|



[Chorus]
Guitar 1:
D||-------------------------------------------------------|
A||-------------------------------------------------------|
F||--14---14---14-14---16---18-14---14---14-14---16---18--|
C||--x----x----x--x----x----x--x----x----x--x----x----x---|
G||--12---12---12-12---14---16-12---12---12-12---14---16--|
C||-------------------------------------------------------|


D||-------------------------------------------------------|
A||-------------------------------------------------------|
F||--16---16---16-16---16---16-16---16---16-13---13---13--|
C||--x----x----x--x----x----x--x----x----x--x----x----x---|
G||--14---14---14-14---14---14-14---14---14-11---11---11--|
C||-------------------------------------------------------|


D||-------------------------------------------------------|
A||-------------------------------------------------------|
F||--14---14---14-14---16---18-14---14---14-14---16---18--|
C||--x----x----x--x----x----x--x----x----x--x----x----x---|
G||--12---12---12-12---14---16-12---12---12-12---14---16--|
C||-------------------------------------------------------|


D||--------------------------------------------------------------------|
A||--------------------------------------------------------------------|
F||--16---16---16-16---16---16-16---16---16---13-13-13-13-13-13-14-14--|
C||--x----x----x--x----x----x--x----x----x----x--x--x--x--x--x--x--x---|
G||--14---14---14-14---14---14-14---14---14---11-11-11-11-11-11-12-12--|
C||--------------------------------------------------------------------|


Guitar 2:
D||-----------------------------------------------------------------------------------|
A||-----------------------------------------------------------------------------------|
F||--7---7---7-7---7---7---------------------------------------------------6---6---6--|
C||--7---7---7-7---7---7-4---4---4-4---4---4-2---2---2-2---2---2-2---2---2-6---6---6--|
G||--5---5---5-5---5---5-4---4---4-4---4---4-2---2---2-2---2---2-2---2---2-4---4---4--|
C||----------------------4---4---4-4---4---4-2---2---2-2---2---2-2---2---2------------|


D||-------------------------------------------------------------------------------------------|
A||-------------------------------------------------------------------------------------------|
F||--7---7---7-7---7---7-----------------------------------------------------6-6-6-6-6-6-6-6--|
C||--7---7---7-7---7---7-4---4---4-4---4---4-2---2---2-2---2---2-2---2---2---6-6-6-6-6-6-6-6--|
G||--5---5---5-5---5---5-4---4---4-4---4---4-2---2---2-2---2---2-2---2---2---4-4-4-4-4-4-4-4--|
C||----------------------4---4---4-4---4---4-2---2---2-2---2---2-2---2---2--------------------|



[Outro]
Guitar 1:
D||---------------------------------------------------------|
A||---------------/17---17---19--------------/17---17---19--|
F||--11---11---11-/x----x----x--14---14---14-/x----x----x---|
C||--x----x----x--/14---14---16-x----x----x--/14---14---16--|
G||--9----9----9----------------12---12---12----------------|
C||---------------------------------------------------------|


D||-----------------------------17-----------17-------------|
A||---------------/17---17---19-x----17---19-x----17---19---|
F||--18---18---18-/x----x----x--14---x----x--14---x----x----|
C||--x----x----x--/14---14---16------14---16------14---16---|
G||--16---16---16-------------------------------------------|
C||---------------------------------------------------------|


D||---------------------------------------------------------|
A||---------------/17---17---19--------------/17---17---19--|
F||--11---11---11-/x----x----x--14---14---14-/x----x----x---|
C||--x----x----x--/14---14---16-x----x----x--/14---14---16--|
G||--9----9----9----------------12---12---12----------------|
C||---------------------------------------------------------|


D||-----------------------------17-----------17---17---17--|
A||---------------/17---17---19-x----17---19-x----x----x---|
F||--18---18---18-/x----x----x--14---x----x--14---14---14--|
C||--x----x----x--/14---14---16------14---16---------------|
G||--16---16---16------------------------------------------|
C||--------------------------------------------------------|


Guitar 2:
D||---------------------------------------------------------------------------|
A||---------------------------------------------------------------------------|
F||---------------------------------------------------------------------------|
C||--0---0---0--------4---4---4--------7---7---7--------2---2---2-------------|
G||--0---0---0--------4---4---4--------7---7---7--------2---2---2-4---4---4---|
C||--0---0---0--------4---4---4--------7---7---7--------2---2---2-------------|


D||---------------------------------------------------------------------------|
A||---------------------------------------------------------------------------|
F||---------------------------------------------------------------------------|
C||------0---0--------4---4---4--------7---7---7--------2---2---2-3---3---3\--|
G||--5\--0---0--------4---4---4--------7---7---7--------2---2---2-3---3---3\--|
C||------0---0--------4---4---4--------7---7---7--------2---2---2-3---3---3\--|





*****************************
-Tablature Legend-

 h   hammer-on
 p   pull-off
 b   bend
 pb  pre-bend
 r   release bend
 ~   hold / vibrato
 .   palm mute
 /   slide up
 \   slide down
 *   pinch harmonic
 '   natural harmonic
 x   mute note
 T   tap

*****************************
Suggest correction
Give kudos to tab author, rate the tab!
1 2 3 4 5
comments
print report bad tab
2 comments total.
0 reply
Saxens 66 Oct 20, 2016 04:31 PM

What are your settings to have the tone of silverstein ? Impossible to figure it out by myself. By the way great tab, 5 stars, I appreciate all the tabs you made for us.

+1 reply
Joshua Garcia [tm] 5,031 Oct 21, 2016 02:16 AM

Thank you for noticing! Silverstein don't really use mids, so they set it low, if not, at 0. They use a punchier bass for those breakdowns and power chords, but also set the treble a little higher for those upper string leads and octaves.

Basically, scoop the mids and set the bass and treble at an even level. They also use a lot of distortion effects. Personally, I have a MXR M75 Super Badass Distortion pedal that helps match their tone quite a bit.

Hope that helps!

guest
You may want to rate the tab now too:
select rating
Wanna post a correction for this tab? Suggest correction