Oops, an error
Loading. Please wait.

Ghost Tab

version 2
version 2

Whole song

Interactive

73 views 9 this week
no commentswrite comment
1 2 3 4 5
3 more votes to show rating
add to favorites
launch autoscroll
font size
0
reset
how to read this tab
guitar tuner
Autoscroll
slow
fast
+/-
esc
set tempo
stop
Help us to improve Ultimate-Guitar.com Take our survey!
×
Author
Difficulty
Tuning
intermediate
C G C F A D
About this tab version
Music video, not album version. Was this info helpful? Yes No
[Ghost]
[Music Video]
[Silverstein]

Tuning: C G C F A D
Playthrough: https://www.youtube.com/watch?v=CoLckI0nEvw

[Riff 1] - [00:00] - [00:09]
- -----------------------------------------------------------------
- -------------------------------------------------------------7---
- -----------------------------6-------------------------------10b-
- -4-----x-7p4-----x-x-x-x-x-x-7---x-0---0-0-------x-3---3-3-------
- -4-----x-7p4-----x-x-x-x-x-x-----x-0---0-0-------x-3---3-3-------
- -4-----x-7p4-----x-x-x-x-x-x-----x-0---0-0-------x-3---3-3-------

- -----------------------------------------------------------------
- -----------------------------------------------------------------
- -----------------------------6-----------------------------------
- -4-----x-7p4-----x-x-x-x-x-x-7---x-0---0-0-------x-3---3-3-------
- -4-----x-7p4-----x-x-x-x-x-x-----x-0---0-0-------x-3---3-3-------
- -4-----x-7p4-----x-x-x-x-x-x-----x-0---0-0-------x-3---3-3-------

[Riff 2] - [00:09] - [00:18]
- -----------------------------------------------------------------
- -------------------------------------------------------------7---
- -----------------------------6-------------------------------10b-
- -4-----x-7p4-----x-x-x-x-x-x-7---x-0---0-0-------x-3---3-3-------
- -4-----x-7p4-----x-x-x-x-x-x-----x-0---0-0-------x-3---3-3-------
- -4-----x-7p4-----x-x-x-x-x-x-----x-0---0-0-------x-3---3-3-------

- -----------------------------------------------------------------
- -----------------------------------------------------------------
- -----------------------------------------------------------------
- -4-----x-7p4-----x-x-x-x---------x-0---0-0-------x---------------
- -4-----x-7p4-----x-x-x-x---------x-0---0-0-------x---------------
- -4-----x-7p4-----x-x-x-x/16--16--x-0---0-0-------x-3-3-3-7-7-3-3-

[Riff 3] - [00:18] - [00:36]
- -----------------------------------------------------------------
- -----------------------------------------------------------------
- -----------------------------------------------------------------
- -----------------------------------------------------------------
- -----------------------------------------------------------------
- -4-4-4-4-4-4-4-4-4-4-4-4-4-4-4-4-4-4-4-4-4-4-4-4-4-4-4-4-4-4-4-4-

- -----------------------------------------------------------------
- -----------------------------------------------------------------
- -----------------------------------------------------------------
- -----------------------------------------------------------------
- -----------------------------------------------------------------
- -0-0-0-0-0-0-0-0-0-0-0-0-0-0-0-0-9-9-9-9-9-9-9-9-9-9-9-9-9-9-9-9-

- -----------------------------------------------------------------
- -----------------------------------------------------------------
- -----------------------------------------------------------------
- -----------------------------------------------------------------
- -----------------------------------------------------------------
- -4-4-4-4-4-4-4-4-4-4-4-4-4-4-4-4-4-4-4-4-4-4-4-4-4-4-4-4-4-4-4-4-

- -----------------------------------------------------------------
- -----------------------------------------------------------------
- -----------------------------------------------------------------
- -----------------------------------------------------------------
- -----------------------------------------------------------------
- -0-0-0-0-0-0-0-0-0-0-0-0-0-0-0-0-9-9-9-9-9-9-9-9-9-9-9-9-9-------


[Riff 4, Guitar 1 & 2] - [00:36] - [00:55]
- -----------------------------------------------------------------
- -----------------------------------------------------------------
- -14----14----14--14----16---/18--14----14----14--14----16---/18--
- -x-----x-----x---x-----x-----x---x-----x-----x---x-----x-----x---
- -12----12----12--12----14---/16--12----12----12--12----14---/16--
- -----------------------------------------------------------------
-
- -----------------------------------------------------------------
- -----------------------------------------------------------------
- -----------------------------------------------------------------
- -12----12----12--12----12----12--4-----4-----4---4-----4-----4---
- -12----12----12--12----12----12--4-----4-----4---4-----4-----4---
- -12----12----12--12----12----12--4-----4-----4---4-----4-----4---


- -----------------------------------------------------------------
- -----------------------------------------------------------------
- -16----16----16--16----16----16--16----16----16--13----13---/14--
- -x-----x-----x---x-----x-----x---x-----x-----x---x-----x-----x---
- -14----14----14--14----14----14--14----14----14--11----12---/12--
- -----------------------------------------------------------------
-
- -----------------------------------------------------------------
- -----------------------------------------------------------------
- -----------------------------------------------------------------
- -2-----2-----2---2-----2-----2---2-----2-----2-------------------
- -2-----2-----2---2-----2-----2---2-----2-----2-------------------
- -2-----2-----2---2-----2-----2---2-----2-----2---11v---11v---11v-


- -----------------------------------------------------------------
- -----------------------------------------------------------------
- -14----14----14--14----16---/18--14----14----14--14----16---/18--
- -x-----x-----x---x-----x-----x---x-----x-----x---x-----x-----x---
- -12----12----12--12----14---/16--12----12----12--12----14---/16--
- -----------------------------------------------------------------
-
- -----------------------------------------------------------------
- -----------------------------------------------------------------
- -----------------------------------------------------------------
- -12----12----12--12----12----12--4-----4-----4---4-----4-----4---
- -12----12----12--12----12----12--4-----4-----4---4-----4-----4---
- -12----12----12--12----12----12--4-----4-----4---4-----4-----4---


- -----------------------------------------------------------------
- -----------------------------------------------------------------
- -16----16----16--16----16----16-/19----18----16------------------
- -x-----x-----x---x-----x-----x---x-----x-----x-------------------
- -14----14----14--14----14----14-/17----16----14------------------
- -----------------------------------------------------------------
-
- -----------------------------------------------------------------
- -----------------------------------------------------------------
- -----------------------------------------------------------------
- -2-----2-----2---2-----2-----2---2-----2-----2-------------7-7-7-
- -2-----2-----2---2-----2-----2---2-----2-----2---6-6-6-6-6-7-7-7-
- -2-----2-----2---2-----2-----2---2-----2-----2---6-6-6-6-6-7-7-7-
PM                                                 .........


[Riff 2] - [00:55] - [01:04]
[Riff 3] - [01:04] - [01:22]


[Riff 5, Guitar 1 & 2] - [01:22] - [01:40]
- -----------------------------------------------------------------
- -----------------------------------------------------------------
- -14----14----14--14----16---/18--14----14----14--14----16---/18--
- -x-----x-----x---x-----x-----x---x-----x-----x---x-----x-----x---
- -12----12----12--12----14---/16--12----12----12--12----14---/16--
- -----------------------------------------------------------------
-
- -----------------------------------------------------------------
- -----------------------------------------------------------------
- -----------------------------------------------------------------
- -12----12----12--12----12----12--4-----4-----4---4-----4-----4---
- -12----12----12--12----12----12--4-----4-----4---4-----4-----4---
- -12----12----12--12----12----12--4-----4-----4---4-----4-----4---


- -----------------------------------------------------------------
- -----------------------------------------------------------------
- -16----16----16--16----16----16--16----16----16--13----13---/14--
- -x-----x-----x---x-----x-----x---x-----x-----x---x-----x-----x---
- -14----14----14--14----14----14--14----14----14--11----12---/12--
- -----------------------------------------------------------------
-
- -----------------------------------------------------------------
- -----------------------------------------------------------------
- -----------------------------------------------------------------
- -2-----2-----2---2-----2-----2---2-----2-----2-------------------
- -2-----2-----2---2-----2-----2---2-----2-----2-------------------
- -2-----2-----2---2-----2-----2---2-----2-----2---11v---11v---11v-


- -----------------------------------------------------------------
- -----------------------------------------------------------------
- -14----14----14--14----16---/18--14----14----14--14----16---/18--
- -x-----x-----x---x-----x-----x---x-----x-----x---x-----x-----x---
- -12----12----12--12----14---/16--12----12----12--12----14---/16--
- -----------------------------------------------------------------
-
- -----------------------------------------------------------------
- -----------------------------------------------------------------
- -----------------------------------------------------------------
- -12----12----12--12----12----12--4-----4-----4---4-----4-----4---
- -12----12----12--12----12----12--4-----4-----4---4-----4-----4---
- -12----12----12--12----12----12--4-----4-----4---4-----4-----4---


- -----------------------------------------------------------------
- -----------------------------------------------------------------
- -16----16----16--16----16----16-/19----18----16--13----13---/14--
- -x-----x-----x---x-----x-----x---x-----x-----x---x-----x-----x---
- -14----14----14--14----14----14-/17----16----14--11----12---/12--
- -----------------------------------------------------------------
-
- -------------------------------------------------------------------------
- -------------------------------------------------------------------------
- -------------------------------------------------------------------------
- -2-----2-----2---2-----2-----2---2-----2-----2---------------------------
- -2-----2-----2---2-----2-----2---2-----2-----2---------------------------
- -2-----2-----2---2-----2-----2---2-----2-----2---11-11-11-11-11-11-11-11-


[Riff  6, Guitar 1 & 2] - [01:40] - [01:58]
- -----------------------------------------------------------------
- ----------------/17----17---/19-----------------/17----17---/19--
- -11----11----11--x-----x-----x---14----14----14--x-----x-----x---
- -x-----x-----x--/14----14---/16--x-----x-----x--/14----14---/16--
- -9-----9-----9-------------------12----12----12------------------
- -----------------------------------------------------------------
-
- -----------------------------------------------------------------
- -----------------------------------------------------------------
- -----------------------------------------------------------------
- -0-----0-----0-------------------4-----4-----4-------------------
- -0-----0-----0-------------------4-----4-----4-------------------
- -0-----0-----0-------------------4-----4-----4-------------------


- ---------------------------------17--------------17--------------
- ----------------/17----17---/19--x-----17---/19--x-----17---/19--
- -18----18----18--x-----x-----x---14----x-----x---14----x-----x---
- -x-----x-----x--/14----14---/16--------14---/16--------14---/16--
- -16----16----16--------------------------------------------------
- -----------------------------------------------------------------
-
- -----------------------------------------------------------------
- -----------------------------------------------------------------
- -----------------------------------------------------------------
- -7-----7-----7-------------------2-----2-----2-------------------
- -7-----7-----7-------------------2-----2-----2-------------------
- -7-----7-----7-------------------2-----2-----2---11v---11v---11v-


- -----------------------------------------------------------------
- ----------------/17----17---/19-----------------/17----17---/19--
- -11----11----11--x-----x-----x---14----14----14--x-----x-----x---
- -x-----x-----x--/14----14---/16--x-----x-----x--/14----14---/16--
- -9-----9-----9-------------------12----12----12------------------
- -----------------------------------------------------------------
-
- -----------------------------------------------------------------
- -----------------------------------------------------------------
- -----------------------------------------------------------------
- -12\---0-----0-------------------4-----4-----4-------------------
- -12\---0-----0-------------------4-----4-----4-------------------
- -12\---0-----0-------------------4-----4-----4-------------------


- ---------------------------------17--------------17v-------------
- ----------------/17----17---/19--x-----17---/19--x---------------
- -18----18----18--x-----x-----x---14----x-----x---14v-------------
- -x-----x-----x--/14----14---/16--------14---/16------------------
- -16----16----16--------------------------------------------------
- -----------------------------------------------------------------
-
- -----------------------------------------------------------------
- -----------------------------------------------------------------
- -----------------------------------------------------------------
- -7-----7-----7-------------------2-----2-----2---2---------------
- -7-----7-----7-------------------2-----2-----2---2---------------
- -7-----7-----7-------------------2-----2-----2---2-------3v------


[Riff 7] - [01:58] - [02:16]
- -----------------------------------------------------------------
- -------------------------------------------------------------7---
- -----------------------------6-------------------------------10b-
- -4-----x-7p4-----x-x-x-x-x-x-7---x-0---0-0-------x-3---3-3-------
- -4-----x-7p4-----x-x-x-x-x-x-----x-0---0-0-------x-3---3-3-------
- -4-----x-7p4-----x-x-x-x-x-x-----x-0---0-0-------x-3---3-3-------

- -----------------------------------------------------------------
- -------------------------------------------------------------7---
- -----------------------------6-------------------------------10b-
- -4-----x-7p4-----x-x-x-x-x-x-7---x-0---0-0-------x-3---3-3-------
- -4-----x-7p4-----x-x-x-x-x-x-----x-0---0-0-------x-3---3-3-------
- -4-----x-7p4-----x-x-x-x-x-x-----x-0---0-0-------x-3---3-3-------

- -----------------------------------------------------------------
- -------------------------------------------------------------7---
- -----------------------------6-------------------------------10b-
- -4-----x-7p4-----x-x-x-x-x-x-7---x-0---0-0-------x-3---3-3-------
- -4-----x-7p4-----x-x-x-x-x-x-----x-0---0-0-------x-3---3-3-------
- -4-----x-7p4-----x-x-x-x-x-x-----x-0---0-0-------x-3---3-3-------

- -----------------------------------------------------------------
- -----------------------------------------------------------------
- -----------------------------6-----------------------------------
- -4-----x-7p4-----x-x-x-x-x-x-7---x-0---0-0-----------------------
- -4-----x-7p4-----x-x-x-x-x-x-----x-0---0-0-----------------------
- -4-----x-7p4-----x-x-x-x-x-x-----x-0---0-0-----------------------

[Riff 8] - [02:16] - [02:43]
- -----------------------------------------------------------------
- -------------------10101010101010--------------------------------
- -------------------x-x-x-x-x-x-x-----------------------------[4]-
- -4-4-----2-4-----x-7-7-7-7-7-7-7-x-0---0-0-------x-3---3-3-x-[4]-
- -4-4-----2-4-----x---------------x-0---0-0-------x-3---3-3-x-----
- -4-4-----2-4-----x---------------x-0---0-0-------x-3---3-3-x-----

- -----------------------------------------------------------------------
- -------------------2---------------------------------------------------
- -------------------5b--------4p2---------------------------------------
- -2-4-----7-4---------------------x-0---0-0-----------------------------
- -2-4-----7-4---------------------x-0---0-0-----------------------------
- -2-4-----7-4---------------------x-0---0-0-------3--/15-15-15-15-15-15-

- -----------------------------------------------------------------
- -------------------10101010101010--------------------------------
- -------------------x-x-x-x-x-x-x-----------------------------[4]-
- -4-4-----2-4-----x-7-7-7-7-7-7-7-x-0---0-0-------x-3---3-3-x-[4]-
- -4-4-----2-4-----x---------------x-0---0-0-------x-3---3-3-x-----
- -4-4-----2-4-----x---------------x-0---0-0-------x-3---3-3-x-----

- -----------------------------------------------------------------------
- -------------------2---------------------------------------------------
- -------------------5b--------4p2---------------------------------------
- -2-4-----7-4---------------------x-0---0-0-------x-3---3-3--x---x---x--
- -2-4-----7-4---------------------x-0---0-0-------x-3---3-3--x---x---x--
- -2-4-----7-4---------------------x-0---0-0-------x-3---3-3-[3]-[3]-[3]-

- -----------------------------------------------------------------------
- -------------------------10101010101010--------------------------------
- -------------------------x-x-x-x-x-x-x-----------------------------[4]-
- --x---x---x---x--4-----x-7-7-7-7-7-7-7-x-0---0-0-------x-3---3-3-x-[4]-
- --x---x---x---x--4-----x---------------x-0---0-0-------x-3---3-3-x-----
- -[3]-[3]-[3]-[3]-4-----x---------------x-0---0-0-------x-3---3-3-x-----

- -----------------------------------------------------------------
- -------------------2---------------------------------------------
- -------------------5b--------4p2---------------------------------
- -2-4-----7-4---------------------x-0---0-0-------x-3---3-3---3---
- -2-4-----7-4---------------------x-0---0-0-------x-3---3-3---3---
- -2-4-----7-4---------------------x-0---0-0-------x-3---3-3---3---


[Riff 9, Guitar 1 & 2] - [02:43] - [02:52]
- -----------------------------------------------------------------
- -----------------------------------------------------------------
- -11-------------/14----------------------------------------------
- -x---------------x-----------------------------------------------
- -9--------------/12----------------------------------------------
- -----------------------------------------------------------------
-
- -----------------------------------------------------------------
- -----------------------------------------------------------------
- -----------------------------------------------------------------
- -0--------------/4-----------------------------------------------
- -0--------------/4-----------------------------------------------
- -0--------------/4-----------------------------------------------


[Riff 5, Guitar 1 & 2] - [02:52] - [03:10]


[Riff 10] - [03:10] - [
- -----------------------------------------------------------------
- ----------------/17----17---/19-----------------/17----17---/19--
- -11----11----11--x-----x-----x---14----14----14--x-----x-----x---
- -x-----x-----x--/14----14---/16--x-----x-----x--/14----14---/16--
- -9-----9-----9-------------------12----12----12------------------
- -----------------------------------------------------------------
-
- -----------------------------------------------------------------
- -----------------------------------------------------------------
- -----------------------------------------------------------------
- -0-----0-----0-------------------4-----4-----4-------------------
- -0-----0-----0-------------------4-----4-----4-------------------
- -0-----0-----0-------------------4-----4-----4-------------------


- ---------------------------------17--------------17--------------
- ----------------/17----17---/19--x-----17---/19--x-----17---/19--
- -18----18----18--x-----x-----x---14----x-----x---14----x-----x---
- -x-----x-----x--/14----14---/16--------14---/16--------14---/16--
- -16----16----16--------------------------------------------------
- -----------------------------------------------------------------
-
- -----------------------------------------------------------------
- -----------------------------------------------------------------
- -----------------------------------------------------------------
- -7-----7-----7-------------------2-----2-----2-------------------
- -7-----7-----7-------------------2-----2-----2-------------------
- -7-----7-----7-------------------2-----2-----2---11v---11v---11v-


- -----------------------------------------------------------------
- ----------------/17----17---/19-----------------/17----17---/19--
- -11----11----11--x-----x-----x---14----14----14--x-----x-----x---
- -x-----x-----x--/14----14---/16--x-----x-----x--/14----14---/16--
- -9-----9-----9-------------------12----12----12------------------
- -----------------------------------------------------------------
-
- -----------------------------------------------------------------
- -----------------------------------------------------------------
- -----------------------------------------------------------------
- -12\---0-----0-------------------4-----4-----4-------------------
- -12\---0-----0-------------------4-----4-----4-------------------
- -12\---0-----0-------------------4-----4-----4-------------------


- ---------------------------------17--------------17v---17v---17--
- ----------------/17----17---/19--x-----17---/19--x-----x-----x---
- -18----18----18--x-----x-----x---14----x-----x---14v---14v---14--
- -x-----x-----x--/14----14---/16--------14---/16------------------
- -16----16----16--------------------------------------------------
- -----------------------------------------------------------------
-
- -----------------------------------------------------------------
- -----------------------------------------------------------------
- -----------------------------------------------------------------
- -7-----7-----7-------------------2-----2-----2---3-----3------3--
- -7-----7-----7-------------------2-----2-----2---3-----3------3--
- -7-----7-----7-------------------2-----2-----2---3-----3------3--

[Symbols]

PM... Palm Mute notes with (...) under them
AP... Alternate Pick notes with (...) under them
h     Hammer On
p     Pull Off
[ ]   Harmonic
/     Slide Up
\     Slide Down
x     Dead Note
b     Bend
p     Pre-Bend
r     Release Bend
(x )  Play Notes x amount of times
~     Let Ring
/ 3 \ Notes are triplets (3 notes in the space of two)
w\    Whammy Bar Down
w/    Whammy Bar Up
T     Right Hand Tap

:)
Suggest correction
Give kudos to tab author, rate the tab!
1 2 3 4 5
comments
print report bad tab
guest
You may want to rate the tab now too:
select rating
Wanna post a correction for this tab? Suggest correction