Oops, an error
Loading. Please wait.

Giving Up Tab

version 1
version 1

Intro

Whole song

6,569 views 1 this week
3 commentsread comments
1 2 3 4 5
x 6
add to favorites
launch autoscroll
font size
0
reset
how to read this tab
guitar tuner
×
Best way to learn
"Giving Up"
Autoscroll
slow
fast
+/-
esc
set tempo
stop
I noticed the intro was wrong in the other tab so i corrected it,
the rest is good tho e-mail for comments d4m3on@hotmail.com


Intro
e|-------0-----0----------0------0----------------------------------------|
B|------------------------------------------8------8----------8------8----|
G|-----5----5----5------5----5-----5------5---5------5------5---5------5--|
D|---7-------7--------7--------7--------7-------7---------7-------7-------|
A|-8----------------8-----------------0-----------------0-----------------|
D|------------------------------------------------------------------------|
Suggest correction
comments
print report bad tab
3 comments total.
0 reply
Bloopers 10 Nov 03, 2003 07:00 PM

Yeah I like this one better myself. Thanks.

0 reply
SomethingFail 10 Jun 30, 2004 08:00 PM

i liek the other one, it's easier to play. but this one sounds alright to .

0 reply
Guitar4life1210 81 Jul 02, 2008 07:09 PM

I checked the intro with the band on their forums at Silversteinmusic.com and got a reply.

"Close but not quite... here is the intro" -Shane Told

e|-------------0----------0--------------------------------|
B|---------------------------------------------------------|
G|-----------0----0----------0----------REPEAT-------------|
D|-----10-------------10-----------------------------------|
A|--8------------------------------------------------------|
D|---------------------------------------------------------|

e|---------------------------------------------------------|
B|------------8------8-------------------------------------|
G|---------5----5------7----------REPEAT-------------------|
D|-----7-----------7---------------------------------------|
A|--0------0-----------------------------------------------|
D|---------------------------------------------------------|

guest
You may want to rate the tab now too:
select rating
Wanna post a correction for this tab? Suggest correction