Oops, an error
Loading. Please wait.

Go Your Own Way Bass Tab

version 1
version 1

Whole song

Interactive

336 views 1 this week
no commentswrite comment
1 2 3 4 5
please rate
add to favorites
launch autoscroll
font size
0
reset
guitar tuner
Autoscroll
slow
fast
+/-
esc
set tempo
stop
Help us to improve Ultimate-Guitar.com Take our survey!
×
Author
Tuning
C# G# C# F# A# D#
++++++++++++++++++++++++++++++++
| Silverstein- Go Your Own Way |
++++++++++++++++++++++++++++++++


"If I could baby I'd give you my world..."

Tuning: Drop C# (C#ADG)


Verse
"Loving you isnt the right thing to do..."
1.
G||-------------------------------------------------------------------------|
D||-------------------------------------------------------------------------|
A||-------------------------------------------------------------------------|
C#|-----------------------------7777777-55555555-55555555-55555555-55555777-|

"If I could, maybe Id give you my world..."
2.
G||-------------------------------------------------------------------------|
D||-------------------------------------------------------------------------|
A||-------------------------------------------------------------------------|
C#|-00000000-00000000-00000000-00000777-55555555-55555555-55555555-55555777-|

Chorus
"You can go your own way..."
3.
G||-------------------------------------------------------------------------|
D||-------------------------------------------------------------------------|
A||-1-11111-----------------------------1-11111---------------------4444333-|
C#|---------5-5555555-7-77777-7-7777777---------0-0000000-7-77777-7---------|

"You can go your own way..."
4.
G||-------------------------------------|
D||-------------------------------------|
A||-1-11111-----------------------------|
C#|---------5-5555555-7-77777-7-7777777-|

Verse
"Tell me why everything turned around..."
5.
G||-------------------------------------------------------------------------|
D||-------------------------------------------------------------------------|
A||-------------------------------------------------------------------------|--x2
C#|-00000000-00000000-00000000-00000777-55555555-55555555-55555555-55555777-|

Chorus
"You can go your own way..."
6.
G||-------------------------------------------------------------------------|
D||-------------------------------------------------------------------------|
A||-1-11111-----------------------------1-11111---------------------4444333-|
C#|---------5-5555555-7-77777-7-7777777---------0-0000000-7-77777-7---------|

"You can go your own way..."
7.
G||-------------------------------------|
D||-------------------------------------|
A||-1-11111-----------------------------|
C#|---------5-5555555-7-77777-7-7777777-|

Bridge
8.
G||-------------------------------------------------------------------------|
D||-------------------------------------------------------------------------|
A||-------------------------------------------------------------------------|
C#|-00000000-00000000-00000000-00000777-55555555-55555555-55555555-55555777-|

9.
G||-------------------------------------------------------------------------|
D||-------------------------------------------------------------------------|
A||-------------------------------------------------------------------------|
C#|-00000000-00000000-00000000-00000777-55555555-55555555-55555555-55555555-|

Chorus
"You can go your own way..."
10.
G||------------------------------------------------------------------------------|
D||----------------------------------------------------------------------3-------|
A||-1~-1-1~-1-------------------------1~-1-1~-1--------------------4h6p4---6-4-3-|
C#|-----------5555555-7~-7-7~-77-7-7~-----------5555555-77777777-7---------------|

"You can go your own way..."
11.
G||-------------------------------------|
D||-------------------------------------|
A||-1-11111-----------------------------|
C#|---------5-5555555-7-77777-7-7777777-|

Outro
12.
G||-------------------------------|
D||-------------------------------|
A||-1~----------------------------|
C#|-------5~----7~----------------|


Please rate thank you!!


Lyrics:

Loving you isn't the right thing to do
How can I ever change things that I feel?
If I could, maybe I'd give you my world
How can I, when you won't take it from me?

You can go your own way 
You can call it another lonely day

Tell me why everything turned around?
Cause packing up, shacking up, is all you wanna do
If I could baby I'd give you my world
Open up, everything's waiting for you 

DO IT!!



+++++++++++++++++++++++++++++++++
| RaiLeff                       |
| Underground__Dora@Hotmail.Com |
+++++++++++++++++++++++++++++++++
Suggest correction
Give kudos to tab author, rate the tab!
1 2 3 4 5
comments
print report bad tab
guest
You may want to rate the tab now too:
select rating
Wanna post a correction for this tab? Suggest correction