Oops, an error
Loading. Please wait.

Good Luck With Your Lives Tab

392 views 1 this week
no commentswrite comment
1 2 3 4 5
excellent!
x 1
add to favorites
launch autoscroll
font size
0
reset
how to read this tab
guitar tuner
Tab Pro tools
  • play this tab
  • loop segment
  • change instrument
  • show fretboard
  • metronome
Autoscroll
slow
fast
+/-
esc
set tempo
stop
Contributor
Difficulty
Tuning
intermediate
C# G# C# F# A# D#
Tabbed by: Joshua Garcia (joshuag523@aol.com)

Tabs for the song: Good Luck With Your Lives by Silverstein
Please rate and let me know if you have any corrections. Thank you.


**NOTE - This was taken from my full album tab, which can be found here: 
http://tabs.ultimate-guitar.com/s/silverstein/rescue_album_tab.htm **


Tuning: Drop C# (C# G# C# F# A# D#)


Intro
Guitar 1:
D#||-------------------------------------------------------|
A#||----13-12------10--------------------------------------|
F#||--9-------9/10----10\9----9---9--9-9-9---9~------------|
C#||-----------------------12----------------10~-----10p9--|
G#||-------------------------------------------------------|
C#||-------------------------------------------------------|


D#||-----------------------------------10~-----------------|
A#||-------12h13p12-10\9-10---12---13---------13---12--13--|
F#||--9/10-------------------------------------------------|
C#||-------------------------------------------------------| x2
G#||-------------------------------------------------------|
C#||-------------------------------------------------------|


Guitar 2:
D#||-------------------------------------------------------|
A#||-------------------------------------------------------|
F#||-------------------------------------------------------|
C#||--7~-------------------------------------3~------------| x4
G#||--7~-------------------------------------3~------------|
C#||--7~-------------------------------------3~------------|



Pre-Chorus
Guitar 1/2:
D#||-------------------------|-------------------------|----------------------------------|
A#||-------------------------|-------------------------|----------------------------------|
F#||---9~-------9------12~---|---9~-------9------12~---|---9~-------9------12~------------|
C#||---x--------x------x-----|---x--------x------x-----|---x--------x------x----------33--|
G#||---5~-------5-x-x--8~----|---5~-------5-x-x--8~----|---5~-------5-x-x--8~----3333333--|
C#||-------------------------|-------------------------|-------------------------3333333--|
                                                                                 .....


Chorus
Guitar 1/2:
D#||--------------------------------------------------------|
A#||--------------------------------------------------------|
F#||-----10-10-9--9------7-7-9-9------7-7-5-5------4-4-5-5--|
C#||-77--x--x--x--x--55--x-x-x-x--33--x-x-x-x--33--x-x-x-x--|
G#||-77--8--8--7--7--55--5-5-7-7--33--5-5-3-3--33--2-2-3-3--|
C#||-77--------------55-----------33-----------33-----------|


D#||------------------------------------------------------|
A#||------------------------------------------------------|
F#||-----10-10-9--9------7-7-9-9------7-7-5-5-------------|
C#||-77--x--x--x--x--55--x-x-x-x--33--x-x-x-x--33---33-5--| x2
G#||-77--8--8--7--7--55--5-5-7-7--33--5-5-3-3--33---33-5--|
C#||-77--------------55-----------33-----------33---33-5--|



Verse
Guitar 1:
D#||-------------------------------------------------------|
A#||----13-12------10--------------------------------------|
F#||--9-------9/10----10\9----9---9--9-9-9---9~------------|
C#||-----------------------12----------------10~-----10p9--|
G#||-------------------------------------------------------|
C#||-------------------------------------------------------|


D#||-----------------------------------10~-----------------|
A#||-------12h13p12-10\9-10---12---13---------13---12--13--|
F#||--9/10-------------------------------------------------|
C#||-------------------------------------------------------| x2
G#||-------------------------------------------------------|
C#||-------------------------------------------------------|


Guitar 2:
D#||-------------------------------------------------------|
A#||-------------------------------------------------------|
F#||-------------------------------------------------------|
C#||--7~-------------------------------------3~------------| x4
G#||--7~-------------------------------------3~------------|
C#||--7~-------------------------------------3~------------|



Pre-Chorus
Guitar 1/2:
D#||-------------------------|-------------------------|----------------------------------|
A#||-------------------------|-------------------------|----------------------------------|
F#||---9~-------9------12~---|---9~-------9------12~---|---9~-------9------12~------------|
C#||---x--------x------x-----|---x--------x------x-----|---x--------x------x----------33--|
G#||---5~-------5-x-x--8~----|---5~-------5-x-x--8~----|---5~-------5-x-x--8~----3333333--|
C#||-------------------------|-------------------------|-------------------------3333333--|
                                                                                 .....


Chorus
Guitar 1/2:
D#||--------------------------------------------------------|
A#||--------------------------------------------------------|
F#||-----10-10-9--9------7-7-9-9------7-7-5-5------4-4-5-5--|
C#||-77--x--x--x--x--55--x-x-x-x--33--x-x-x-x--33--x-x-x-x--|
G#||-77--8--8--7--7--55--5-5-7-7--33--5-5-3-3--33--2-2-3-3--|
C#||-77--------------55-----------33-----------33-----------|


D#||------------------------------------------------------|
A#||------------------------------------------------------|
F#||-----10-10-9--9------7-7-9-9------7-7-5-5-------------|
C#||-77--x--x--x--x--55--x-x-x-x--33--x-x-x-x--33---33-5--| x2
G#||-77--8--8--7--7--55--5-5-7-7--33--5-5-3-3--33---33-5--|
C#||-77--------------55-----------33-----------33---33-5--|


D#||------------------------------------|
A#||------------------------------------|
F#||------------------------------------|
C#||-33---33-2-33---33-5-33---33-5-7-\--|
G#||-33---33-2-33---33-5-33---33-5-7-\--|
C#||-33---33-2-33---33-5-33---33-5-7-\--|



Bridge
Guitar 1:
D#||---------------------------------------------------|
A#||---------------------------------------------------|
F#||-----9h10p9---------------12---------12------------|
C#||-(7)--------10h12-10p9-10----10p9h10----10p9---3~--|
G#||-(7)-------------------------------------------3~--|
C#||-(7)-------------------------------------------3~--|


D#||---------------------------------------------------|
A#||---------------------------------------------------|
F#||-----9h10p9---------------12---------12------------|
C#||-7-7--------10h12-10p9-10----10p9h10----10p9---9~--|
G#||-7-7-----------------------------------------------|
C#||-7-7-----------------------------------------------|


D#||--------------------|
A#||--------------------|
F#||----------------9~--|
C#||--10~----12~--------|
G#||--------------------|
C#||--------------------|


Guitar 2:
D#||---------------------------------------------------|
A#||---------------------------------------------------|
F#||---------------------------------------------------|
C#||-(7-\)-----------------------------------------3~--|
G#||-(7-\)-----------------------------------------3~--|
C#||-(7-\)-----------------------------------------3~--|


D#||---------------------------------------------------|
A#||---------------------------------------------------|
F#||---------------------------------------------------|
C#||--7-7-\----------------------------------------3~--|
G#||--7-7-\----------------------------------------3~--|
C#||--7-7-\----------------------------------------3~--|


D#||-------------------|
A#||-------------------|
F#||-------------------|
C#||--3-3-3-3-3-3-3-3--|
G#||--3-3-3-3-3-3-3-3--|
C#||--3-3-3-3-3-3-3-3--|
      . . . . . . . .



Solo
Guitar 1:
D#||---12--------------------------------------------|
A#||--------13---10-----------10---------------------|
F#||------------------12---12----------9-------------|
C#||------------------------------12-----------------|
G#||---------------------------------------12---10---|
C#||-------------------------------------------------|


D#||---12-------------15---15------------------------|
A#||--------13---10-----------10--12---13--13~-------|
F#||-------------------------------------------------|
C#||-------------------------------------------------|
G#||-------------------------------------------------|
C#||-------------------------------------------------|


D#||---12--------------------------------------------|
A#||--------13---10-----------10---------------------|
F#||------------------12---12----------9-------------|
C#||------------------------------12-----------------|
G#||---------------------------------------12---10---|
C#||-------------------------------------------------|


D#||---12-------------15---15---------------10~------|
A#||--------13---10-----------10--12---13------------|
F#||-------------------------------------------------|
C#||-------------------------------------------------|
G#||-------------------------------------------------|
C#||-------------------------------------------------|


D#||--12~--|
A#||-------|
F#||-------|
C#||-------|
G#||-------|
C#||-------|


Guitar 2:
D#||-----------------------------------------------------------|
A#||-----------------------------------------------------------|
F#||-----------------------------------------------------------|
C#||-777------------777----------------333---------333---------| x4
G#||-777--10-10-10--777--10-10-10-7-7--333--3-3-3--333--3-3-5--|
C#||-777------------777----------------333---------333---------|



Pre-Chorus
Guitar 1/2:
D#||-------------------------|-------------------------|---------------------------------|
A#||-------------------------|-------------------------|---------------------------------|
F#||---9~-------9------12~---|---9~-------9------12~---|---9~-------9------12~-----------|
C#||---x--------x------x-----|---x--------x------x-----|---x--------x------x--------(3)--|
G#||---5~-------5-x-x--8~----|---5~-------5-x-x--8~----|---5~-------5-x-x--8~-------(3)--|
C#||-------------------------|-------------------------|----------------------------(3)--|



Chorus
Guitar 1/2:
D#||--------------------------------------------------------|
A#||--------------------------------------------------------|
F#||-----10-10-9--9------7-7-9-9------7-7-5-5------4-4-5-5--|
C#||-77--x--x--x--x--55--x-x-x-x--33--x-x-x-x--33--x-x-x-x--|
G#||-77--8--8--7--7--55--5-5-7-7--33--5-5-3-3--33--2-2-3-3--|
C#||-77--------------55-----------33-----------33-----------|


D#||------------------------------------------------------|
A#||------------------------------------------------------|
F#||-----10-10-9--9------7-7-9-9------7-7-5-5-------------|
C#||-77--x--x--x--x--55--x-x-x-x--33--x-x-x-x--33---33-5--| x2
G#||-77--8--8--7--7--55--5-5-7-7--33--5-5-3-3--33---33-5--|
C#||-77--------------55-----------33-----------33---33-5--|



Outro
Guitar 1:
D#||---------------------------------------------------------|
A#||---------------------------------------------------------|
F#||---------------------------------------------------------|
C#||-77------------55------------33------------33------------| x3
G#||-77---8-7-8~---55---5-7-5~---33---8-7-8~---33---2-3-2~---|
C#||-77------------55------------33------------33------------|
     ..            ..            ..            ..

D#||----------------------------------------------------------|
A#||----------------------------------------------------------|
F#||----------------------------------------------------------|
C#||-77------------55------------33------------33---33-5-7-\--|
G#||-77---8-7-8~---55---5-7-5~---33---8-7-8~---33---33-5-7-\--|
C#||-77------------55------------33------------33---33-5-7-\--|
     ..            ..            ..


Guitar 2:
D#||----------------------------------------------------------|
A#||----------------------------------------------------------|
F#||----------------------------------------------------------|
C#||-77---7-5-7~---55---9-10-9~---33---7-5-7~---33---5-7-5~---| x3
G#||-77------------55-------------33------------33------------|
C#||-77------------55-------------33------------33------------|
     ..            ..             ..            ..

D#||-----------------------------------------------------------|
A#||-----------------------------------------------------------|
F#||-----------------------------------------------------------|
C#||-77---7-5-7~---55---9-10-9~---33---7-5-7~---33---33-5-7-\--|
G#||-77------------55-------------33------------33---33-5-7-\--|
C#||-77------------55-------------33------------33---33-5-7-\--|
     ..            ..             ..




Tablature Legend
----------------
 h   hammer-on
 p   pull-off
 b   bend
 pb  pre-bend
 r   release bend
 ~   hold / vibrato
 .   palm mute
 /   slide up
 \   slide down
 *   pinch harmonic
 '   natural harmonic
 x   mute note
 T   tap
comments
We did not receive enough feedback on this tab! Please rate:
print report bad tab
1 2 3 4 5
I want to post or [tab]
guest
You may want to rate the tab now too:
select rating
Please do not post tabs as comments. Select "correction" instead!