Oops, an error
Loading. Please wait.

Hear Me Out Bass Tab

version 1
version 1

Whole song

Interactive

619 views 1 this week
5 commentsread comments
1 2 3 4 5
x 4
add to favorites
launch autoscroll
font size
0
reset
guitar tuner
Autoscroll
slow
fast
+/-
esc
set tempo
stop
Help us to improve Ultimate-Guitar.com Take our survey!
×
Author
Difficulty
novice
Tuning: Standard

Intro
|---------------------|
|---------------------|
|---------------------|
|-7~---------5~----3~-|x4

Verse
|------------------------------------|
|------------------------------------|
|------------------------------------|
|-7777777777777777-55555555-33333333-|x4

Chorus
|----------------------|
|----------------------|
|------55--------------|
|-77--------33-33-3333-|x3

|------------|
|------------|
|-----5------|
|-7-------3~-| 

Verse
|------------------------------------|
|------------------------------------|
|------------------------------------|
|-7777777777777777-55555555-33333333-|x4

Chorus
|----------------------|
|----------------------|
|------55--------------|
|-77--------33-33-3333-|x3

|------------|
|------------|
|-----5------|
|-7-------3~-| 

Verse
|-----------------------------------------|
|-----------------------------------------|
|-5555555555555555-4444444444444444-------|
|-----------------------------------3333x-|

|----------------------------|
|----------------------------|
|----------------------------|
|-33333333-77777777-55555555-|

|-----------------------------------------|
|-----------------------------------------|
|-5555555555555555-4444444444444444-------|
|-----------------------------------3333x-|

|--------------------------|
|--------------------------|
|--------------------------|
|-33333333-33-33-33-33-223-|

|-----------------------------------------|
|-----------------------------------------|
|-5555555555555555-4444444444444444-------|
|-----------------------------------3333x-| 
                                             x2
|----------------------------|                
|----------------------------|                
|----------------------------|
|-33333333-77777777-55555555-|

Pre-Bridge
|----------------------|
|----------------------|
|----------------------|
|-7~----7~----3~----5~-|x4

Bridge
|-------------------------------------------------|
|-------------------------------------------------|
|-------------------------------------------------|
|-7777x-----7777x----------3333x-----5555x--3355x-|x4

Chorus
|----------------------|
|----------------------|
|------55--------------|
|-77--------33-33-3333-|x3

|--------------|
|--------------|
|-----5--------|
|-7-------3~~~-|
Suggest correction
comments
print report bad tab
5 comments total. Showing first comments.
0 reply
RaiLeff 12,922 Feb 10, 2007 03:02 PM

Heeey
I was gonna tab this song :P
hahah
Neways, nice job!
5 =D

0 reply
carrotcake 1,997 Jun 28, 2007 01:00 PM

there were two notes wrong in the bridge, I fixed 'em though

0 reply
Kristinaishz 10 Aug 29, 2008 10:47 PM

nice tab thanksssss

guest
You may want to rate the tab now too:
select rating
Wanna post a correction for this tab? Suggest correction