Oops, an error
Loading. Please wait.

Hear Me Out Tab

version 2
version 2

Solo

Whole song

Interactive

1,037 views 1 this week
no commentswrite comment
1 2 3 4 5
please rate
add to favorites
launch autoscroll
font size
0
reset
how to read this tab
guitar tuner
Autoscroll
slow
fast
+/-
esc
set tempo
stop
Help us to improve Ultimate-Guitar.com Take our survey!
×
Difficulty
intermediate
Sounds better than other tabs

h = hammer on
p = pull off
/ = slide

RIFF
e-----------------------------------------------------|
B-----------------------------------------------------|
G------11-9-7-6h7p6--9-7-6-7-9/11-6-7-----------------|
D--7/9-------------9------------------7/9(over again)-|
A-----------------------------------------------------|
E-----------------------------------------------------|

Back-Up
e-----------------------------------------------------|
B-----------------------------------------------------|
G-----------------------------------------------------|
D--9-9-9-9-9-9-9-9---5-5--7-7---7-7-------------------|
A--9-9-9-9-9-9-9-9---5-5--7-7---7-7-------------------|
E--7-7-7-7-7-7-7-7---3-3--5-5---5-5-------------------|
Suggest correction
Give kudos to tab author, rate the tab!
1 2 3 4 5
comments
print report bad tab
guest
You may want to rate the tab now too:
select rating
Please do not post tabs as comments. Select "correction" instead!