Oops, an error
Loading. Please wait.

Hear Me Out Tab

version 1
version 1

Whole song

Interactive

4,555 views 1 this week
4 commentsread comments
1 2 3 4 5
x 4
add to favorites
launch autoscroll
font size
0
reset
how to read this tab
guitar tuner
Autoscroll
slow
fast
+/-
esc
set tempo
stop
Help us to improve Ultimate-Guitar.com Take our survey!
×
Author
Key:
~       = let the note ring out
..      = palm mute
/       = slide up
\       = slide down
h       = hammer-on
p       = pull-off
x       = mute string(s)
v       = vibrato
(cont.) = continued from the last line

STANDARD TUNING

GUITAR ONE'S PARTS:


0:00
INTRO:                                                              (x5)
e|---------------------------------------------------------------------|
B|---------------------------------------------------------------------|
G|---------------------------------------------------------------------|
D|---------4-4-4--------------4-4------------2-2-2--------------2-2----|
A|---2-2-2-------5-5-5--2-2-2-----5-5--4-4-4-------5-5-5--4-4-4-----5-5|
E|---------------------------------------------------------------------|
P.M. . . . . . . . . .  . . . . . . .  . . . . . . . . .  . . . . . . .
                                                                    (x1)
e|---------------------------------------------------------------------|
B|---------------------------------------------------------------------|
G|---------------------------------------------------------------------|
D|---------4-4-4--------------4-4------------2-2-2--------------2-2----|
A|---2-2-2-------5-5-5--2-2-2-----5-5--4-4-4-------5-5-5--4-4-4-----5-5|
E|---------------------------------------------------------------------|
P.M. . . . . . . . . .  . . . . . . .  . . . . . . . . .   
                   (gradually let off of the palm mute)^

0:35
VERSE:(the octaves were hard to hear 
      so listen closely for the strumming)
"When everyone..."
e|-------------------------------------------------------|
B|-------------------------------------------------------|
G|-11-11-11-11-11-11-11-11-11-11-11-11-11-11/12-11-9-7~--|
D|--x--x--x--x--x--x--x--x--x--x--x--x--x--x--x--x-x-x---|
A|--9--9--9--9--9--9--9--9--9--9--9--9--9--9/10--9-7-5~--|
E|-------------------------------------------------------|
"...just wait and see."
e|---------------------------------------------------|
B|---------------------------------------------------|
G|-11-11-11-11-11-11-11-11-11-11-11-11-11-19-18-14~--|
D|--x--x--x--x--x--x--x--x--x--x--x--x--x--x--x--x---|
A|--9--9--9--9--9--9--9--9--9--9--9--9--9-17-16-12~--|
E|---------------------------------------------------|
"Maybe if you..."
e|------------------------------|
B|------------------------------|
G|-11-12-11-9-9/11-7-11/12-11-7~|
D|--x--x--x-x-x--x-x--x--x--x-x-|
A|--9-10--9-7-7/-9-5--9/10--9-5~|
E|------------------------------|
"Maybe you'd even care."
e|---------------------------------------------------|
B|---------------------------------------------------|
G|-11-11-11-11-11-11-11-11-11-11-11-11-11-19-18-14~--|
D|--x--x--x--x--x--x--x--x--x--x--x--x--x--x--x--x---|
A|--9--9--9--9--9--9--9--9--9--9--9--9--9-17-16-12~--|
E|---------------------------------------------------|


0:59
CHORUS:
"Hear me out..."
e|-------------|
B|-------------|
G|---4~-7~-----|
D|---4~-7~-5~--|(x4)
A|---2~-5~-5~--|
E|---------3~--|


1:11
VERSE 2:
"Burn your bridge..."
e|----------------------------------------------------------|
B|----------------------------------------------------------|
G|-11/12-x-x-12\11-x-x-11/12-x-x-12\11-x-x-11/12-x-x-12\11--|
D|--x--x-x-x--x--x-x-x--x--x-x-x--x--x-x-x--x--x-x-x--x--x--|
A|--9/10-x-x-10\-9-x-x--9/10-x-x-10\-9-x-x--9/10-x-x-10\-9--|
E|----------------------------------------------------------|
                  (cont.)
e|----------------------|
B|----------------------|
G|-11/12-x-x-12\11-x-x--|
D|--x--x-x-x--x--x-x-x--|
A|--9/10-x-x-10\-9-x-x--|
E|----------------------|

e|----------------------------------------------------------|
B|----------------------------------------------------------|
G|-11/12-x-x-12\11-x-x-11/12-x-x--9/11-x-x-11/12-x-x-12\11--|
D|--x--x-x-x--x--x-x-x--x--x-x-x--x--x-x-x--x--x-x-x--x--x--|
A|--9/10-x-x-10\-9-x-x--9/10-x-x--7/-9-x-x--9/10-x-x-10\-9--|
E|----------------------------------------------------------|
"...meeee."       (cont.)
e|----------------------|
B|----------------------|
G|-x-19-19-19-19-19-19~-|
D|-x--x--x--x--x--x--x--|
A|-x-17-17-17-17-17-17~-|
E|----------------------|

"You made..."
e|-----------------------------------|
B|-----------------------------------|
G|--/19-18-16-/19-18-16-21-19-18-14--|
D|----x--x--x---x--x--x--x--x--x--x--|(x2)
A|--/17-16-14-/17-16-14-19-17-16-12--|
E|-----------------------------------|
(figure out strumming)

1:35
CHORUS:
"Hear me out..."
e|-------------|
B|-------------|
G|---4~-7~-----|
D|---4~-7~-5~--|(x4)
A|---2~-5~-5~--|
E|---------3~--|

1:46
VERSE 3:
"Did you mean..."
e|-------------------------------------------------------|
B|-------------------------------------------------------|
G|--7-7-7-7-7-7-7-7-7--6-6-6-6-6-6-6-6-6-6---------------|
D|--7-7-7-7-7-7-7-7-7--7-7-7-7-7-7-7-7-7-7--5-5-5-5--5~--|
A|--5-5-5-5-5-5-5-5-5--4-4-4-4-4-4-4-4-4-4--5-5-5-5--5~--|
E|------------------------------------------3-3-3-3--3~--|
                    (cont.)
e|------------------------|
B|------------------------|
G|------------------------|
D|--9-9-9-9-9--7-7-7-7-7--|
A|--9-9-9-9-9--7-7-7-7-7--|
E|--7-7-7-7-7--5-5-5-5-5--|

e|-------------------------------------------------------|
B|-------------------------------------------------------|
G|--7-7-7-7-7-7-7-7-7--6-6-6-6-6-6-6-6-6-6---------------|
D|--7-7-7-7-7-7-7-7-7--7-7-7-7-7-7-7-7-7-7--5-5-5-5--5~--|
A|--5-5-5-5-5-5-5-5-5--4-4-4-4-4-4-4-4-4-4--5-5-5-5--5~--|
E|------------------------------------------3-3-3-3--3~--|

e|-----------------------------|
B|-----------------------------|
G|--9\7-7--x-9\7-7--x-9\7-x-x--|
D|--x-x-x--x-x-x-x--x-x-x-x-x--|
A|--7\5-5--x-7\5-5--x-7\5-x-x--|
E|-----------------------------|
"When you reflect..."
e|-------------------------------------------------------|
B|-------------------------------------------------------|
G|--14-14-14-14-14-14-14-14-14-14-14/16\14--14-14-14-14--|
D|---x--x--x--x--x--x--x--x--x--x--x--x--x---x--x--x--x--|
A|--12-12-12-12-12-12-12-12-12-12-12/14\12--12-12-12-12--|
E|-------------------------------------------------------|
                       (cont.)
e|---------------------------------------------------------------|
B|---------------------------------------------------------------|
G|--14-14-19-18-16-14-14-14-14--16\14~--12-11-9/11\7--9/11-11/12-|
D|---x--x--x--x--x--x--x--x--x---x--x----x--x-x--x-x--x--x-----x-|
A|--12-12-17-16-14-12-12-12-12--14\12~--10--9-7/-9\5--7/-9--9/10-|
E|---------------------------------------------------------------|
"And everytime..."
e|-------------------------------------------------------|
B|-------------------------------------------------------|
G|--14-14-14-14-14-14-14-14-14-14-14/16\14--14-14-14-14--|
D|---x--x--x--x--x--x--x--x--x--x--x--x--x---x--x--x--x--|
A|--12-12-12-12-12-12-12-12-12-12-12/14\12--12-12-12-12--|
E|-------------------------------------------------------|
                       (cont.)
e|--------------------------------------------------------|
B|--------------------------------------------------------|
G|--14-14-19-18-16-14-14-14-14--16\14~--12-11-9-7-7/9-7~--|
D|---x--x--x--x--x--x--x--x--x---x--x----x--x-x-x-x-x-x---|
A|--12-12-17-16-14-12-12-12-12--14\12~--10--9-7-5-5/7-5~--|
E|--------------------------------------------------------|
(remember...you figure out the strumming... it's hard to tab out all
of the octaves, let alone hear all of them correctly in this song.)

2:40 
BRIDGE: (only guitar two plays so I tabbed out the violin instead)
"Now that you've left..."
e|--------------------------------------------------|
B|--3--5--3p2-------3--5--3p2-------3--5--3p2-------|
G|------------4--2~-----------4--6~-----------4--2~-|
D|--------------------------------------------------|
A|--------------------------------------------------|
E|--------------------------------------------------|

2:56  (guitar comes back in)
"...i hated."
e|------------------|
B|------------------|
G|------------------|
D|---7-7-7-7-7-7-7--|
A|---7-7-7-7-7-7-7--|
E|---5-5-5-5-5-5-5--|
P.M. . . . . . .

(I think the violin is playing with the 2nd guitar during this part,
 so I tabbed it out right below what guitar one plays for this part)

2:58
BREAKDOWN:
e|--------------------------------------------------|
B|--------------------------------------------------|
G|--------------------------------------------------|
D|--9-9-9-9--9-9-9-9----5-5-5-5---7-7-7-7--7-7-7-7--|(x4)
A|--9-9-9-9--9-9-9-9----5-5-5-5---7-7-7-7--7-7-7-7--|
E|--7-7-7-7--7-7-7-7----3-3-3-3---5-5-5-5--5-5-5-5--|

2:58    
Violin's part:
e|-------------------------------------------|
B|--------------------------------/10--------|
G|-------11-9-7-9h11p9-7--9-7-6-7-----7-9-7--|
D|---7/9-------------------------------------|
A|-------------------------------------------|
E|-------------------------------------------|

e|-------------------------------------------|
B|--------------------------------/10--------|
G|-------11-9-7-9h11p9-7--9-7-6-7-----7-6----|
D|---7/9----------------------------------7--|
A|-------------------------------------------|
E|-------------------------------------------|

e|-------------------------------------------|
B|--------------------------------/10--------|
G|-------11-9-7-9h11p9-7--9-7-6-7-----7-9-7--|
D|---7/9-------------------------------------|
A|-------------------------------------------|
E|-------------------------------------------|

e|------------------------------------|
B|--------------------------------/10-|
G|-------11-9-7-9h11p9-7--9-7-6-7-----|
D|---7/9------------------------------|
A|------------------------------------|
E|------------------------------------|

3:23
CHORUS:
"Hear me out..."
e|-------------|
B|-------------|
G|---4~-7~-----|
D|---4~-7~-5~--|(x4)
A|---2~-5~-5~--|
E|---------3~--|


GUITAR TWO'S PARTS
0:11
INTRO:  
e|---------0~---------0----------|
B|-------3----------3-----5p3-0~-|
G|-----4----------4--------------|
D|-------------------------------|(x4)
A|---2----------0----------------|
E|----------------------3--------|

0:35
VERSE:
"When everyone..."
e|-------------------------------------------------------|
B|-------------------------------------------------------|
G|--4-4-4-4-4-4-4-4-4-4-4-4-4-4-4--2-2-2-2-2-------------|
D|--4-4-4-4-4-4-4-4-4-4-4-4-4-4-4--2-2-2-2-2--5-5-5-5-5--|(x4)
A|--2-2-2-2-2-2-2-2-2-2-2-2-2-2-2--0-0-0-0-0--5-5-5-5-5--|
E|--------------------------------------------3-3-3-3-3--|

0:59
CHORUS:
"Hear me out..."
e|----------------------------------------------------------------|
B|----------------------------------------------------------------|
G|--4~-7~----7-7-7--7/9-9-9--4~-7~----12-11-11\9-7/11-------------|
D|--4~-7~-5~-x-x-x--x-x-x-x--4~-7~-5~--x--x--x-x-x--x-------------|
A|--2~-5~-5~-5-5-5--5/7-7-7--2~-5~-5~-10--9--9\7-9/-9-------------|
E|--------3~-----------------------3~-----------------------------|

e|-------------------------------------|
B|-------------------------------------|
G|--4~-7~----4-4-4-4-4-4-4-4-4~-7~-----|
D|--4~-7~-5~-x-x-x-x-x-x-x-x-4~-7~-5~--|
A|--2~-5~-5~-2-2-2-2-2-2-2-2-2~-5~-5~--|
E|--------3~-----------------------3~--|

1:11
VERSE 2:
"Burn your bridge..."
e|--------------------------------------------------------|
B|--------------------------------------------------------|
G|---4-4-4-4-4-4-4-4-4-4-4-4-4-4-4--2-2-2-2-2-------------|
D|---4-4-4-4-4-4-4-4-4-4-4-4-4-4-4--2-2-2-2-2--5-5-5-5-5--|(x2)
A|---2-2-2-2-2-2-2-2-2-2-2-2-2-2-2--0-0-0-0-0--5-5-5-5-5--|
E|---------------------------------------------3-3-3-3-3--|
P.M. . . . . . . . . . . . . . . .  . . . . .  . . . . . 

"You made..."
e|-------------------------------------------------------|
B|-------------------------------------------------------|
G|--4-4-4-4-4-4-4-4-4-4-4-4-4-4-4--2-2-2-2-2-------------|
D|--4-4-4-4-4-4-4-4-4-4-4-4-4-4-4--2-2-2-2-2--5-5-5-5-5--|(x2)
A|--2-2-2-2-2-2-2-2-2-2-2-2-2-2-2--0-0-0-0-0--5-5-5-5-5--|
E|--------------------------------------------3-3-3-3-3--|

1:34
CHORUS:
"Hear me out..."
e|----------------------------------------------------------------|
B|----------------------------------------------------------------|
G|--4~-7~----7-7-7--7/9-9-9--4~-7~----12-11-11\9-7/11-------------|
D|--4~-7~-5~-x-x-x--x-x-x-x--4~-7~-5~--x--x--x-x-x--x-------------|
A|--2~-5~-5~-5-5-5--5/7-7-7--2~-5~-5~-10--9--9\7-9/-9-------------|
E|--------3~-----------------------3~-----------------------------|

e|-------------------------------------|
B|-------------------------------------|
G|--4~-7~----4-4-4-4-4-4-4-4-4~-7~-----|
D|--4~-7~-5~-x-x-x-x-x-x-x-x-4~-7~-5~--|
A|--2~-5~-5~-2-2-2-2-2-2-2-2-2~-5~-5~--|
E|--------3~-----------------------3~--|


1:46
VERSE 3:
"Did you mean..."
e|-------------------------------------------------------|
B|-------------------------------------------------------|
G|--7-7-7-7-7-7-7-7-7--6-6-6-6-6-6-6-6-6-6---------------|
D|--7-7-7-7-7-7-7-7-7--7-7-7-7-7-7-7-7-7-7--5-5-5-5--5~--|
A|--5-5-5-5-5-5-5-5-5--4-4-4-4-4-4-4-4-4-4--5-5-5-5--5~--|
E|------------------------------------------3-3-3-3--3~--|
                    (cont.)
e|------------------------|
B|------------------------|
G|------------------------|
D|--9-9-9-9-9--7-7-7-7-7--|
A|--9-9-9-9-9--7-7-7-7-7--|
E|--7-7-7-7-7--5-5-5-5-5--|
"Writing you letters..."
e|-------------------------------------------------------|
B|-------------------------------------------------------|
G|--7-7-7-7-7-7-7-7-7--6-6-6-6-6-6-6-6-6-6---------------|
D|--7-7-7-7-7-7-7-7-7--7-7-7-7-7-7-7-7-7-7--5-5-5-5--5~--|
A|--5-5-5-5-5-5-5-5-5--4-4-4-4-4-4-4-4-4-4--5-5-5-5--5~--|
E|------------------------------------------3-3-3-3--3~--|

e|-----------------------------|
B|-----------------------------|
G|--9\7-7--x-9\7-7--x-9\7-x-x--|
D|--x-x-x--x-x-x-x--x-x-x-x-x--|
A|--7\5-5--x-7\5-5--x-7\5-x-x--|
E|-----------------------------|
"When you reflect..."
e|-------------------------------------------------------|
B|-------------------------------------------------------|
G|--7-7-7-7-7-7-7-7-7--6-6-6-6-6-6-6-6-6-6---------------|
D|--7-7-7-7-7-7-7-7-7--7-7-7-7-7-7-7-7-7-7--5-5-5-5--5~--|
A|--5-5-5-5-5-5-5-5-5--4-4-4-4-4-4-4-4-4-4--5-5-5-5--5~--|
E|------------------------------------------3-3-3-3--3~--|
                    (cont.)
e|------------------------|
B|------------------------|
G|------------------------|
D|--9-9-9-9-9--7-7-7-7-7--|
A|--9-9-9-9-9--7-7-7-7-7--|
E|--7-7-7-7-7--5-5-5-5-5--|

e|-------------------------------------------------------|
B|-------------------------------------------------------|
G|--7-7-7-7-7-7-7-7-7--6-6-6-6-6-6-6-6-6-6---------------|
D|--7-7-7-7-7-7-7-7-7--7-7-7-7-7-7-7-7-7-7--5-5-5-5--5~--|
A|--5-5-5-5-5-5-5-5-5--4-4-4-4-4-4-4-4-4-4--5-5-5-5--5~--|
E|------------------------------------------3-3-3-3--3~--|
                       (cont.)
e|---------------------------|
B|---------------------------|
G|---------------------------|
D|--9-9-9-9-9--7-7-7-7-7--9~-|
A|--9-9-9-9-9--7-7-7-7-7--9~-|
E|--7-7-7-7-7--5-5-5-5-5--7~-|

2:34
BRIDGE: (listen closely for the few variations in the order 
         of the picking of the notes...I have them in here for you)
                                             "Now that you've left..."
e|----0-----0---0-----0-----0---------0-----0---------0-----0--------|
B|------3-----3---3-----3-----3---3-----3-----3---3-----3-----3---3--|
G|--------4---------------4-----4---------4-----4---------4-----4----|
D|-------------------------------------------------------------------|
A|--2---------------2-------------------------------0----------------|
E|----------------------------------3--------------------------------|
                                                   "make me feel..."        
e|----0-----0---------0-----0---0-----0-----0---0-----0-----0---0----|
B|------3-----3---3-----3-----3---3-----3-----3---3-----3-----3---3--|
G|--------4-----4---------4---------------4---------------4----------|
D|-------------------------------------------------------------------|
A|--2---------------2-------------------------------0----------------|
E|----------------------------------3--------------------------------|
   
e|----0-----0---0-----0-----0---0-----0-----0---------0-----0--------|
B|------3-----3---3-----3-----3---3-----3-----3---3-----3-----3---3--|
G|--------4---------------4---------------4-----4---------4-----4----|
D|-------------------------------------------------------------------|
A|--2---------------2-------------------------------0----------------|
E|----------------------------------3--------------------------------| 
"...you did all these things I hated."
e|----0-----0---------0-----0---------0-----0---0-----0-----0---0----|
B|------3-----3---3-----3-----3---3-----3-----3---3-----3-----3---3--|
G|--------4-----4---------4-----4---------4---------------4----------|
D|-------------------------------------------------------------------|
A|--2---------------2-------------------------------0----------------|
E|----------------------------------3--------------------------------|

2:58
BREAKDOWN:
e|---------------------------------------|
B|-------10-8-7--------------------------|
G|--------------6h7-6---9-7-6-7----------|
D|--7/9---------------9---------4--------|(x4)
A|--------------------------------5-4----|
E|------------------------------------5--|

3:23
CHORUS:
"Hear me out..."
e|----------------------------------------------------------------|
B|----------------------------------------------------------------|
G|--4~-7~----7-7-7--7/9-9-9--4~-7~----12-11-11\9-7/11-------------|
D|--4~-7~-5~-x-x-x--x-x-x-x--4~-7~-5~--x--x--x-x-x--x-------------|
A|--2~-5~-5~-5-5-5--5/7-7-7--2~-5~-5~-10--9--9\7-9/-9-------------|
E|--------3~-----------------------3~-----------------------------|

e|-------------------------------------|
B|-------------------------------------|
G|--4~-7~----4-4-4-4-4-4-4-4-4~-7~-----|
D|--4~-7~-5~-x-x-x-x-x-x-x-x-4~-7~-5~--|
A|--2~-5~-5~-2-2-2-2-2-2-2-2-2~-5~-5~--|
E|--------3~-----------------------3~--|END
Suggest correction
comments
print report bad tab
4 comments total. Showing first comments.
0 reply
gtr-boy 278 Nov 19, 2006 07:05 PM

VIRTUAL HUG this is a perfect tab dude
could u please update ur november tab i gave u the proper tuning you can try it out

anyways back to this tab 5 STARS

0 reply
gtr-boy 278 Nov 21, 2006 08:03 PM

lol i always spam your comment boards =P
for guitar 2 ( the bridge) is there any chords i could play to make it easier

0 reply
screamokid 379 Nov 28, 2006 10:59 PM

try this

e-3
b-4
g-0
d-0
a-2
E-3

kinda like a variation of G

im pretty sure the tuning is right for november
silverstein tunes in standard and drop d
i will update it tho becuase it may sound better to some people
dont worry about spamming my comment boards
i like feedback on my tabs.

guest
You may want to rate the tab now too:
select rating
Wanna post a correction for this tab? Suggest correction