Oops, an error
Loading. Please wait.

Help Bass Tab

version 1
version 1

Whole song

Interactive

557 views 1 this week
no commentswrite comment
1 2 3 4 5
3 more votes to show rating
add to favorites
launch autoscroll
font size
0
reset
guitar tuner
Autoscroll
slow
fast
+/-
esc
set tempo
stop
Help us to improve Ultimate-Guitar.com Take our survey!
×
Author
Tuning
D# G# C# F# A# D#
++++++++++++++++++++++
| Silverstein- Help! |
++++++++++++++++++++++


"Wont you please please help me..."


What a great cover by a great band!!
Long Live The Beatles!


Tuning: Half Step Down (EbADG) 



Intro
"Help! I need somebody..."
1.
G||-----------------------------------------------------|
D||-----------------------------------------------------|
A||-----------------------------------------------------|
Eb|-7~----7~--5~--3~----3~--2~--0~----0~--0~--5~--------|

Verse
"When I was younger..."
2.
G||------------------------------------------------------------|
D||------------------------------------------------------------|
A||---------------3-3333-3-3333---------------4-44-------------|--x2
Eb|-5-5555-5-5555---------------2-2222-2-2222------3-33-5-5555-|

Chorus
"Help me if you can Im feeling down..."
3.
G||-------------------------------------------------------------------------|
D||-------------------------------------------------------------------------|
A||-------------------------------------------------------------------------|
Eb|-77777777-77777777-77777777-77775555-33333333-33333333-33333333-33332222-|

"Help me get my feet back on the ground..."
4.
G||---------------------------------------------------------------------|
D||--------------------------------------------------------------6-6666-|
A||---------------------------------------------------------------------|
Eb|-00000000-00000000-00000000-00000000-5~----------------5-5555--------|

Verse
"And now my life has changed..."
5.
G||------------------------------------------------------------|
D||------------------------------------------------------------|
A||---------------3-3333-3-3333---------------4-44-------------|--x2
Eb|-5-5555-5-5555---------------2-2222-2-2222------3-33-5-5555-|

Chorus
"Help me if you can Im feeling down..."
6.
G||-------------------------------------------------------------------------|
D||-------------------------------------------------------------------------|
A||-------------------------------------------------------------------------|
Eb|-77777777-77777777-77777777-77775555-33333333-33333333-33333333-33332222-|

"Help me get my feet back on the ground..."
7.
G||---------------------------------------------------------------------|
D||---------------------------------------------------------------------|
A||---------------------------------------------------------------------|
Eb|-00000000-00000000-00000000-00000000-5~----------------5-5555-5-5555-|

Bridge
"When I was younger..."
8.
G||-----------------------------------|
D||-----------------------------------|
A||-----------------------------------|
Eb|-5x--------------------------------|

"But now these days are gone..."
9.
G||--------------------------------------------------|
D||--------------------------------------------------|
A||-----------3~------------------4444---------------|
Eb|-5~------------------2~-------------3333-55555555-|

Chorus
"Help me if you can Im feeling down..."
10.
G||---------------------------------------------------------------|
D||---------------------------------------------------------------|
A||---------------------------------------------------------------|
Eb|-7-77-77-7-7777-7-7-777-7~--5~--3-33-33-3-3333-3-3-333-3~--2~--|

"Help me get my feet back on the ground..."
11.
G||-------------------------------------------------|
D||-------------------------------------------------|
A||-------------------------------------------------|
Eb|-0-00-00-0-0000-0-0-000-000-00-5~----------------|

Outro
"Help me, help me..."
12.
G||------------------------|
D||------------------------|
A||------------------------|
Eb|-2-2222-2-2222-5~----5x-|


Please rate thanks!!


Lyrics:

Help, I need somebody,
Help, not just anybody,
Help, you know I need someone, help.

When I was younger, so much younger than today,
I never needed anybody's help in any way.
But now these days are gone, I'm not so self
assured,
Now I find I've changed my mind and opened up the
doors.

Help me if you can, I'm feeling down
And I do appreciate you being round.
Help me get my feet back on the ground,
Won't you please, please help me.

And now my life has changed in oh so many ways,
My independence seems to vanish in the haze.
But every now and then I feel so insecure,
I know that I just need you like I've never done
before.



+++++++++++++++++++++++++++++++++
| Raileff                       |
| Underground__Dora@Hotmail.Com |
+++++++++++++++++++++++++++++++++
Suggest correction
Give kudos to tab author, rate the tab!
1 2 3 4 5
comments
print report bad tab
guest
You may want to rate the tab now too:
select rating
Wanna post a correction for this tab? Suggest correction