Oops, an error
Loading. Please wait.

I Am The Arsonist Bass Tab

version 1
version 1

Whole song

Interactive

1,324 views 1 this week
no commentswrite comment
1 2 3 4 5
please rate
add to favorites
launch autoscroll
font size
0
reset
guitar tuner
Tab Pro tools
  • play this tab
  • loop segment
  • change instrument
  • show fretboard
  • metronome
×
Best way to learn
"I Am The Arsonist"
Autoscroll
slow
fast
+/-
esc
set tempo
stop
Difficulty
novice
-------------------------------------------------------------------------------
			     I Am The Arsonist - Silverstein
-------------------------------------------------------------------------------

Tabbed By : Cory
e-mail: Brokensilence410@hotmail.com

The first song I tabbed on my own so I probably made mistakes but it sounds right.

Tuning: EADG

Intro: 0:00 - 0:20
G|-----------------------------------------------------------------------------------|
D|---------------------------------787---------5---7-------------787----------5--7---|
A|--------------------------5-7-------8--8--8-3--4----------5-7-------8-8-8-3--4-----|
E|-0x----0~------00000--00------00------8--8--------------00----00------8-8----------|

Verse 1: 0:20 - 0:34
G|----------------------------------------------------------|x2
D|----------------------------------------------------------|
A|----------------------------------------------------------|
E|--00-00-----00-00-----88-88--88-88--55-88--55-88----------|

Chorus : 0:34 - 0:54
G|------------------------------------------------------|
D|-----------------------------------------------5----7-|
A|-------------------------------------------3----4-----|
E|---0~--0-8~-8~--5~--5-7~-3~-3-5~-5~-00000-------------|

G|-----------------------------------------------------|
D|-----------------------------------------------------|
A|-----------------------------------------------------|
E|-----0~--0-8~-8~--5~--5-7~-3~-3-5~-5~-00000---545----|

Post-Chorus : 0:54 - 1:04
G|-----------------------------------------------------------------|
D|---------------787---------5---7-------------787----------5--7---|
A|--------5-7-------8--8--8-3--4----------5-7-------8-8-8-3--4-----|
E|----00------00------8--8--------------00----00------8-8----------|

Verse 2: 1:04 - 1:18
G|-----------------------------------------------------|x2
D|-----------------------------------------------------|
A|-----------------------------------------------------|
E|--00-00-----00-00-----88-88--88-88--55-88--55-88-----|

Chorus : 1:18 - 1:38
G|-----------------------------------------------------|
D|---------------------------------------------5----7--|
A|-------------------------------------------3----4----|
E|---0~--0-8~-8~--5~--5-7~-3~-3-5~-5~-00000------------|

G|----------------------------------------------------|
D|----------------------------------------------------|
A|----------------------------------------------------|
E|-----0~--0-8~-8~--5~--5-7~-3~-3-5~-5~-00000---545---|

Bridge: 1:38 - 2:08
G|-----------------------------------------------------------------|x2
D|-----------------------------------------------------------------|
A|---------------------------------------------------------------4-|
E|--000-000-000-000-888-888-888-888-5555x----5555x----33332222023--|

Breakdown: 2:08 - 2: 18
G|-----------------------------------------------|
D|-----------------------------------------------|
A|-----------------------------------------------|
E|-0000-0000-0000-0000-0000-0000-0000-0000---5\--|

Outro: 2:18 - 3:08
G|--------------------------------------------|x4
D|--------------------------------------------|
A|--------------------------------------------|
E|-0000--0000--8888-8888-5555-5555-3333-2222--|

G|---------|
D|---------|
A|---------|
E|---00~---|

| /  slide up
| \  slide down
| h  hammer-on
| p  pull-off
| ~  vibrato
| +  harmonic
| x  Mute note
==============================================================================
comments
We did not receive enough feedback on this tab! Please rate:
print report bad tab
1 2 3 4 5
I want to post or [tab]
guest
You may want to rate the tab now too:
select rating
Please do not post tabs as comments. Select "correction" instead!