Oops, an error
Loading. Please wait.

I Am The Arsonist Tab

version 1
version 1

Intro

Whole song

Interactive

2,361 views 1 this week
2 commentsread comments
1 2 3 4 5
please rate
add to favorites
launch autoscroll
font size
0
reset
how to read this tab
guitar tuner
Autoscroll
slow
fast
+/-
esc
set tempo
stop
Help us to improve Ultimate-Guitar.com Take our survey!
×
Contributor
I Am The Arsonist By Silverstein
Tuning C#
Pm: palm muted
This is my first tabs so yeah...
You can figure out the strumming on your own...
E |--------------------------------|
B |--------------------------------|
G |--------------------------------|
D |---0-2--7-8-7-3--3--3--5--7-----|      x idk
A |------------------1--1--3--4----|
E |00----00------------------------|
comments
We did not receive enough feedback on this tab! Please rate:
print report bad tab
1 2 3 4 5
2 comments total.
0 reply
Anti-Pizza-Guy 36 wrote on April 9 2009, 09:31 pm

sorry when it goes to
D |---0-2--7-8-7-3--3--3--5--7-----|
A |------------------1--1--3--4----|
It's supposed to be...
D |---0-2--7-8-7-3--3--3--5--7-----|
A |----------------1--1--3--4------|

0 reply
Anti-Pizza-Guy 36 wrote on April 9 2009, 09:33 pm

and the times you hit the bottom string are palm muted

I want to post or [tab]
guest
You may want to rate the tab now too:
select rating
Please do not post tabs as comments. Select "correction" instead!