Oops, an error
Loading. Please wait.

I Am The Arsonist Bass Tab

version 2
version 2

Whole song

Interactive

941 views 1 this week
no commentswrite comment
1 2 3 4 5
please rate
add to favorites
launch autoscroll
font size
0
reset
guitar tuner
Autoscroll
slow
fast
+/-
esc
set tempo
stop
Help us to improve Ultimate-Guitar.com Take our survey!
×
Author
Tuning
C# G# C# F# A# D#
++++++++++++++++++++++++++++++++++
| Silverstein- I Am The Arsonist |
++++++++++++++++++++++++++++++++++


"I am the one that never lets you down..." 


Tuning: Drop C# (C#ADG)



Intro
1.
G||----------------------------------------------|
D||----------------------------------------------|
A||----------------------------------------------|
C#|-0x----------------0~---------0-0-0-0-0-0-0-0-|

2.
G||---------112211----------------------------112211--------------------|
D||---------------22---22--22--44--66---------------22---22--22--44--66-|
A||---446~-----------00--00--22--33-----446~-----------00--00--22--33---|
C#|-00----00--------------------------00----00--------------------------|

Verse
"Throwing up with the thoughts..."
3.
G||---------------------------------------------------------------------------------|
D||---------------------------------------------------------------------------------|
A||-----------00x--00x-----------------00x------------00x--00x-----------------00x--|
C#|-00x--00x------------55x--77x--55x-------00x--00x------------55x--77x--55x-------|

Chorus
"They'll see your fire..."
4.
G||-------------------------------------------------------------------------|
D||------------------------------------------------------------------44--66-|
A||--------0-00000000----------------------------------------------22--33---|
C#|-0-0000------------555555-7777777777-3-3333-5-55555555-00000000----------|

"If there's a pyre..."
5.
G||---------------------------------------------------------------------|
D||---------------------------------------------------------------------|
A||--------0-00000000-------------------------------------4~-3~---------|
C#|-0-0000------------555555-7777777777-3-3333-5-55555555-------0~------|

Outro
"Burn!" 
6.
G||---------112211----------------------------112211--------------------|
D||---------------22---22--22--44--66---------------22---22--22--44--66-|
A||---446~-----------00--00--22--33-----446~-----------00--00--22--33---|
C#|-00----00--------------------------00----00--------------------------|

Verse
"Gasoline and fire..."
7.
G||---------------------------------------------------------------------------------|
D||---------------------------------------------------------------------------------|
A||-----------00x--00x-----------------00x------------00x--00x-----------------00x--|
C#|-00x--00x------------55x--77x--55x-------00x--00x------------55x--77x--55x-------|

Chorus
"They'll see your fire..."
8.
G||-------------------------------------------------------------------------|
D||------------------------------------------------------------------44--66-|
A||--------0-00000000----------------------------------------------22--33---|
C#|-0-0000------------555555-7777777777-3-3333-5-55555555-00000000----------|

"If there's a pyre..."
9.
G||---------------------------------------------------------------------|
D||---------------------------------------------------------------------|
A||--------0-00000000-------------------------------------4~-3~---------|
C#|-0-0000------------555555-7777777777-3-3333-5-55555555-------0~------|

Outro
10.
G||----------------------------------------------------------------------------|
D||----------------------------------------------------------------------------|
A||---------------------000x-000x-000x-000x------------------------------------|
C#|-000x-000x-000x-000x---------------------5555x----5555x----33333333-5322----|

Bridge
"I am the light..." 
11.
G||----------------------------------------------------------------------------|
D||----------------------------------------------------------------------------|
A||---------------------000x-000x-000x-000x------------------------------------|--x2
C#|-000x-000x-000x-000x---------------------5555x----5555x----33333333-5322----|

12.
G||-----------------------------------------------------------------|
D||-----------------------------------------------------------------|
A||-----------------------------------------------------------------|
C#|-0000x-0000x----0000x-0000x----0000x-0000x----0000x-0000x----12\-|

"They'll suspect..." 
13.
G||-------------------------------------------------------------|
D||-------------------------------------------------------------|
A||----------------0000x-0000x----------------------------------|--x4
C#|-0000x-0000x-------------------5555x-5555x----3333x-2222x----|

Outro
"Down..."
14.
G||-------------------------|
D||-------------------------|
A||-------------------------|
C#|-12\-0-0~----------------|


Please rate thanks!!


Lyrics:

Throwing up with the thought of you two,
How could you do this?
My best friend with my bride,
Now you tell me you are leaving.

They'll see your fire through the dark night sky
I hope you're home when I arrive.
If there's a pyre in the afterlife,
I'll be there again to light the match.

Burn!!!

Gasoline and fire is the perfect combination
Light it up,
Burn it down,
Burning my addiction.

I am the light that warms up your body and sets free the demons inside.
I am the one that never ignores you, that never will let you down.

They'll suspect, but they'll never prove I was there
In my fate, I feel the wrath of adrenaline
It's so hard to run away, when I want to stay
To watch it burn, watch it churn,



+++++++++++++++++++++++++++++++++
| Raileff                       |
| Underground__Dora@Hotmail.Com |
+++++++++++++++++++++++++++++++++
Suggest correction
Give kudos to tab author, rate the tab!
1 2 3 4 5
comments
print report bad tab
guest
You may want to rate the tab now too:
select rating
Wanna post a correction for this tab? Suggest correction