Oops, an error
Loading. Please wait.

I Am The Arsonist Tab

version 2
version 2

Whole song

Interactive

2,772 views 1 this week
no commentswrite comment
1 2 3 4 5
accurate
x 4
add to favorites
launch autoscroll
font size
0
reset
how to read this tab
guitar tuner
Tab Pro tools
  • play this tab
  • loop segment
  • change instrument
  • show fretboard
  • metronome
×
Best way to learn
"I Am The Arsonist"
Autoscroll
slow
fast
+/-
esc
set tempo
stop
Contributor
 Barely ANYONE had tabbed this song. And none were in thre right tuning. So I took
it upon my self to do it. Its 95 % correct im extremely positive.  Tuning is Drop
C#. Not D, Or C, Or Standard. C#.

* - Harmonic
/ \ - Slide up or down to the following note.
. - Muted
T- Tremolo picking


Intro / Main riff
        T  T    T T T   T   T   T   T  T    T T   T    T
d#|-----------------------------------------------------------|
A#|-----------------------------------------------------------|
F#|-------------7-8-7-----------------------------------------|
C#|----5--7-----------7---------3------3-------5-------7------|
G#|-0-----------------------1-------1-------3------4----------|
C#|-0---------------------------------------------------------|

 Verse Rhythm.
d#|-------------------------------------------------------------|
A#|-------------------------------------------------------------|
F#|-------------------------------------------------------------|
C#|-------------------------------------------------------------|
G#|-0-0--------------0-0--------------8-8-----------8-8---------|
C#|-0-0--------------0-0--------------8-8-----------8-8---------|
    . .              . .              . .           . .

Verse Lead
d#|-------------------------------------------------------------------|
A#|-------------------------------------------------------------------|
F#|--------0h5h7—0h5h7----0h5h7-0h5h7-----0h3h5-0h3h5-----0h3h5-0h3h5-|
C#|-------------------------------------------------------------------|
G#|-------------------------------------------------------------------|
C#|-------------------------------------------------------------------|


Verse Rhythm
d#|-------------------------------------------------------------------|
A#|-------------------------------------------------------------------|
F#|-------------------------------------------------------------------|
C#|-------------------------------------------------------------------|
G#|-5-5-------------------7-7-----------------5-5---------------------|
C#|-5-5-------------------7-7-----------------5-5---------------------|
    . .                   . .                 . .


Verse Lead
d#|-------------------------------------------------------------------|
A#|-------------------------------------------------------------------|
F#|--------0h2h3--0h2h3---------0h2h5—0h2h5--------0h2h3—0h2h3--------|
C#|-------------------------------------------------------------------|
G#|-------------------------------------------------------------------|
C#|-------------------------------------------------------------------|


 Verse Rhythm
d#|----------------------------------------------------------------|
A#|----------------------------------------------------------------|
F#|----------------------------------------------------------------|
C#|----------------------------------------------------------------|
G#|-8-8------------------------------------------------------------|
C#|-8-8------------------------------------------------------------|
    . .


 Verse Lead
d#|--------------------------------------------------------------|
A#|--------------------------------------------------------------|
F#|--------2h3h2h3h2~~~------------------------------------------|
C#---------------------------------------------------------------|
G#|--------------------------------------------------------------|
C#|--------------------------------------------------------------|

Repeat all that as necessary.

Chorus
d#|-------------------------------------------------------------|
A#|-------------------------------------------------------------|
F#|---------~~~-------------------------------------------------|
C#|-0~~~----3~~~---5~~--2~~~----3~~~---5~~~---------------------|
G#|-0~~~----1~~~---5~~--0~~~----3~~~---5~~~---------------------|
C#|-0~~~-----------5~~----------3~~~---5~~~---------------------|
                        T  T   T   T
d#|-----------------------------------------------------------------|
A#|-----------------------------------------------------------------|
F#|-----------------------------------------------------------------|
C#|------------------------5-------7--------------------------------|
G#|--0-0-0-0-0-0-0-0----3------4------------------------------------|
C#|--0-0-0-0-0-0-0-0------------------------------------------------|
       . . .   . . .


d#|----------------------------------------------------------------|
A#|----------------------------------------------------------------|
F#|---------~~~----------------------------------------------------|
C#|-0~~~----3~~~---5~~--2~~~----3~~~---5~~~----7~-6~-7~------------|
G#|-0~~~----1~~~---5~~--0~~~----3~~~---5~~~----5~-4~-5~------------|
C#|-0~~~-----------5-----~~~----3~~~---5~~-------------------------|


Verse
d#|-----------------------------------------------------------|
A#|-----------------------------------------------------------|
F#|-----------------------------------------------------------|
C#|-------------7-8-7----------3------3-------5-------7-------|   X2
G#|----5--7-----------7------1-------1-------3------4---------|
C#|-0-0-----0-0-----------------------------------------------|
    . .     . .
Repeat Verse lead and Rhythm.
Then;
Repeat Chorus.

Break down
d#|-----------------------------------------------------------|
A#|-----------------------------------------------------------|
F#|--------7----------9---------10----------12----------------|
C#|-----------------------------------------------------------|
G#|-0-0-0--5--0-0-0---7--0-0-0---8--0-0-0---10----------------|
C#|-0-0-0-----0-0-0------0-0-0------0-0-0---------------------| X2
    . . .     . . .      . . .      . . .

d#|-----------------------------------------------------------|
A#|-----------------------------------------------------------|
F#|--------7-7-7-7-----------9-9-9-9--------------------------|
C#|-----------------------------------------------------------|
G#|-0-0-0--5-5-5-5---0-0-0---7-7-7-7--------------------------|
C#|-0-0-0------------0-0-0------------------------------------|
    . . .            . . .

d#|-----------------------------------------------------------|
A#|-----------------------------------------------------------|
F#|-----------------------------------------------------------|
C#|-----------------------------------------------------------|
G#|-3-3-3-3-3-3-3-3-3----2-2-2-2-----0--2--0--4---------------|
C#|-3-3-3-3-3-3-3-3-3----2-2-2-2------------------------------|
    . . . .   . . . .      .   .

Repeat all the above twice.

Breakdown Pt. 2

d#|-----------------------------------------------------------|
A#|-----------------------------------------------------------|
F#|-----------------------------------------------------------|
C#|-----------------------------------------------------------|
G#|-0-0-0-0-----0-0-0-0---------------------------------------|
C#|-0-0-0-0-----0-0-0-0---------------------------------------| X4
    . . . .     . . . .
 With the above, when nearing the end of the fourth time, come in with a slide into the 
thing. Listen to the song and you’ll hear it.

Harmony
d#|-------------------------------------------------------------------|
A#|-------------------------------------------------------------------|
F#|-------------------------------------------------------------------|
C#|-8-7---7-----------8-7-------10—8~~--8-7---------------------------|
G#|----8---8-8~~~--------8-7h8--------------8-7-8-8~~--10-8-7------8*-|
C#|-----------------------------------------------------------8/10----|


d#|-------------------------------------------------------------------|
A#|-------------------------------------------------------------------|
F#|-------------------------------------------------------------------|
C#|-8-7---7-----------8-7-------10—8~~--8-7-------------------------*7|
G#|----8---8-8~~~--------8-7h8--------------8-7-8/10\8~~--10-8-7------|
C#|--------------------------------------------------------------8/10-|


d#|-------------------------------------------------------------------|
A#|-------------------------------------------------------------------|
F#|-------------------------------------------------------------------|
C#|-8-7---7-----------8-7-------10—8~~--8-7-------------------------*7|
G#|----8---8-8~~~--------8-7h8--------------8-7-8/*10\8~~-10-8-7------|
C#|--------------------------------------------------------------8/10-|
X2


End on:
d#|------|
A#|------|
F#|------|
C#|------|
G#|-0-0~~|
C#|-0-0~~|
comments
print report bad tab
I want to post or [tab]
guest
You may want to rate the tab now too:
select rating
Please do not post tabs as comments. Select "correction" instead!