Oops, an error
Loading. Please wait.

I Am The Arsonist Tab

version 3
version 3

Whole song

Interactive

26,506 views 9 this week
8 commentsread comments
1 2 3 4 5
x 15
add to favorites
launch autoscroll
font size
0
reset
how to read this tab
guitar tuner
Autoscroll
slow
fast
+/-
esc
set tempo
stop
Help us to improve Ultimate-Guitar.com Take our survey!
×
Author
-------------------------------------------------------------------------------
                     I Am The Arsonist - Silverstein
-------------------------------------------------------------------------------
Tabbed by: MiikeJones
Email: Mikej1617@yahoo.com

Woo this Is my first tab so dont be so harsh:)

ps! Add me On myspace If you want!
url=Mikej1617
Tuning: Drop C#

| /  slide up
| \  slide down
| h  hammer-on
| p  pull-off
| ~  vibrato
| +  harmonic
| x  Mute note
| T  Tremelo Picking
| *  Pinch harmonic

Intro all tremelo Pickingg!
      t    t   t   t   t   t   t   t   t   t    t  t   t  t
|---------------------------------------------------------------------------|x4
|---------------------------------------------------------------------------|
|---------------------------------------------------------------------------|
|--------------7---8---7-----------3-------3-------5-------7----------------|
|x00----5---7---------------7---1-------1-------3-------4-------------------|
|x00------------------------------------------------------------------------|

Do this next part twice! - (Throwing up at the thought of you two.)
|---------------------------------------------------------------------------|
|---------------------------------------------------------------------------|
|---------------------------------------------------------------------------|
|------0h5h7-0h5h7------0h5h7-0h5h7-----------------------------------------|
|-------------------------------------------0h8h10-0h8h10------0h8h10-0h8h10|
|x00----------------x00---------------x88-----------------x88---------------|

|---------------------------------------------------------------------------|x2
|---------------------------------------------------------------------------|
|---------------------------------------------------------------------------|
|---------------------------------------------------------------------------|
|-----0h5h7-0h5h7------0h5h7-0h5h7---------0h5h7-0h5h7--------7h8-7---------|
|x55---------------x55---------------x55----------------00x-----------------|

You figure out the strumming pattern   (Theyll See a fire Though the dark...)
|---------------------------------------------------------|-----------------|x2
|---------------------------------------------------------|-----------------|
|---------------------------------------------------------|-----------------|
|---------------------------------------------------------|-----5t-------7t-|
|00----88----55----77----33----55-------------------------|-3t-------4t-----|
|00----88----55----77----33----55-------x000-x00--x000-x00|-----------------|
 x5     x5    x5    x5    x5   x5                            First ending ^
|-----------------|-----|
|-----------------|-----|
|-----------------|-----|
|----3-----2----3-|-----|
|----5-----4----5-|-----|
|-------0x---x0---|-19\0|
 Second ending ^   

Repeat this intro again twice - (BURN!)        
      t    t   t   t   t   t   t   t   t   t    t  t   t  t
|---------------------------------------------------------------------------|x2
|---------------------------------------------------------------------------|
|---------------------------------------------------------------------------|
|--------------7---8---7-----------3-------3-------5-------7----------------|
|x00----5---7---------------7---1-------1-------3-------4-------------------|
|x00------------------------------------------------------------------------|

ahh this part again (Gasoline Fire its the perfect combination)Repeat twice!
|---------------------------------------------------------------------------|
|---------------------------------------------------------------------------|
|---------------------------------------------------------------------------|
|------0h5h7-0h5h7------0h5h7-0h5h7-----------------------------------------|
|-------------------------------------------0h8h10-0h8h10------0h8h10-0h8h10|
|x00----------------x00---------------x88-----------------x88---------------|

|---------------------------------------------------------------------------|
|---------------------------------------------------------------------------|
|---------------------------------------------------------------------------|
|---------------------------------------------------------------------------|
|-----0h5h7-0h5h7------0h5h7-0h5h7---------0h5h7-0h5h7--------7h8-7---------|
|x55---------------x55---------------x55----------------00x-----------------|

 (Theyll See a fire Though the dark...) SECOND TIME!
|---------------------------------------------------------|-----------------|x2
|---------------------------------------------------------|-----------------|
|---------------------------------------------------------|-----------------|
|---------------------------------------------------------|-----5t-------7t-|
|00----88----55----77----33----55-------------------------|-3t-------4t-----|
|00----88----55----77----33----55-------x000-x00--x000-x00|-----------------|
                                                            First ending ^
|-----------------|
|-----------------|
|-----------------|
|----3-----2----3-|
|----5-----4----5-|
|-------0x---x0---|

The part right beforee the breakdown!:D Repeat 3 times! - (I am the light)
|--------------------------------------------------------------------------|x3
|--------------------------------------------------------------------------|
|--------------------------------------------------------------------------|
|----------------------------------------5---------------------------------|
|--5----7----8-----10----5-----7----8----------x5555------x7777-----0h2p0h4|
|---x000-x000--x000--x000--x888-x888-x888-x5555-----x5555------3x-2x-------|

Breakdownnn:P - ( Let You down )                               x8  x4 
|-------------------------------------------------------------------|
|-------------------------------------------------------------------|
|-------------------------------------------------------------------|
|-------------------------------------------------------------------|
|-x0000-x0000----x0000-x0000----x0000-x0000----x0000-x0000----------|
|-x0000-x0000----x0000-x0000----x0000-x0000----x0000-x0000----------|
           
   (Theyll suspect But theyll never prove)repeat4x untill the end!
|---------------------------------------------------------------------------|
|---------------------------------------------------------------------------|
|---------------------------------------------------------------------------|
|------------5/8-7------7-----8-8-7----------/10-8---8-7-------7------------|
|------------------8-8---8-8-------8-8-1010-8--------------8-8----8-8-(8)/10|
|-17\0---x00----------------------------------------------------------------|


|---------------------------------------------------------------------------|
|---------------------------------------------------------------------------|
|---------------------------------------------------------------------------|
|---------------------------------------------------------------------------|
|-7--0--3/4--5*-------------------------------------------------------------|
|------------------17\0----x00----------------------------------------------|
Donee:)
Im pretty shure this is all correct besides some of the end but its not that different
Have fun:P
Silverstein=greatestbandever:)


===============================================================================
Suggest correction
comments
print report bad tab
8 comments total. Showing first comments.
+2 reply
kimo_or_welshie 10 Jun 12, 2009 05:06 AM

there is another 2 c# power chords after the first 5 7 treb pick in each part, i think they r palm muted aswell.

0 reply
DIRN0625 10 Jul 13, 2009 05:15 PM

i can't figure out the strumming pattern for the chorus

+2 reply
Joshua Garcia 5,031 Jul 19, 2009 06:59 PM

Got it mostly right but the second part doesn't end the same as the first. It goes like this:

|---------------------------------------------------------------------------|x2
|---------------------------------------------------------------------------|
|---------------------------------------------------------------------------|
|---------------------------------------------------------------------------|
|-----0h5h7-0h5h7------0h5h7-0h5h7---------0h5h7-0h5h7--------0h5h8-5h7-----|
|x55---------------x66---------------x55----------------66x-----------------|

|---------------------------------------------------------------------------|x2
|---------------------------------------------------------------------------|
|---------------------------------------------------------------------------|
|---------------------------------------------------------------------------|
|-----0h5h7-0h5h7------0h5h7-0h5h7---------0h5h7-0h5h7--------7h8-7---------|
|x55---------------x66---------------x55----------------66x-----------------|

And the pre-chorus should be strummed once, not 5 times.
Elsewise looks correct to me.

guest
You may want to rate the tab now too:
select rating
Wanna post a correction for this tab? Suggest correction