Oops, an error
Loading. Please wait.

I Am The Arsonist Tab

version 4
version 4

Intro

Whole song

Interactive

1,352 views 1 this week
no commentswrite comment
1 2 3 4 5
accurate
x 4
add to favorites
launch autoscroll
font size
0
reset
how to read this tab
guitar tuner
Tab Pro tools
  • play this tab
  • loop segment
  • change instrument
  • show fretboard
  • metronome
Autoscroll
slow
fast
+/-
esc
set tempo
stop
Contributor
Difficulty
Tuning
intermediate
C# G# C# F# A# D#
-------------------------------------------------------------------------------
			     I AM THE ARSONIST - Silverstein
-------------------------------------------------------------------------------
Tabbed by: Crixx
Email: chris_378_ [at] hotmail.com

Tuning: Drop C#

       t  t     t  t  t  t  t  t  t  t  t  t  t  t
|--------------------------------------------------| x4
|--------------------------------------------------|
|--------------------------------------------------|
|---------------7--8--7--------------------5-----7-|
|-0-0--5--7--------------8-----8-----8--3-----4----|
|-0-0-------0-0-------------8-----8----------------|
  . .       . .

(Throwing up at the thought of you two)
|----------------------------------------------------------------------------|\
|----------------------------------------------------------------------------| \
|----------------------------------------------------------------------------|  \
|------0h5h7-0h5h7-------0h5h7-0h5h7-----------------------------------------|   |
|------------------------------------------0h8h10-0h8h10-------0h8h10-0h8h10-|   |
|-0-0---------------0-0---------------8-8-----------------8-8----------------|   |
  . .               . .               . .                 . .                    | x2
|----------------------------------------------------------------------------|   |
|----------------------------------------------------------------------------|   |
|----------------------------------------------------------------------------|   |
|----------------------------------------------------------------------------|  /
|------0h5h7-0h5h7-------0h5h7-0h5h7-------0h5h7-0h5h7-------0h7h8p0-7-------| /
|-5-5---------------5-5---------------5-5---------------0-0------------------|/
  . .               . .               . .               . .

(They'll See a fire Through the dark)
|-------------------------------------------------------------------------|-----------------|
|-------------------------------------------------------------------------|-----------------|
|-------------------------------------------------------------------------|-----------------|
|-------------------------------------------------------------------------|-----5t-------7t-|
|0~---0-8~--8~--5~--5-7~--7~--3~--3-5~---5~-------------------------------|-3t-------4t-----|
|0~---0-8~--8~--5~--5-7~--7~--3~--3-5~---5~------0--0--0-0-0--0--0--0-0-0-|-----------------|
                                                 .  .  . . .  .  .  . . .

|-------------------------------------------------------------------------|-----------|
|-------------------------------------------------------------------------|-----------|
|-------------------------------------------------------------------------|-----------|
|-------------------------------------------------------------------------|-3---2---3-|
|0~---0-8~--8~--5~--5-7~--7~--3~--3-5~---5~-------------------------------|-5---4---5-|
|0~---0-8~--8~--5~--5-7~--7~--3~--3-5~---5~------0--0--0-0-0--0--0--0-0-0-|---0---0---|
                                                 .  .  . . .  .  .  . . .     .   .

       t  t     t  t  t  t  t  t  t  t  t  t  t  t
|--------------------------------------------------|
|--------------------------------------------------|
|--------------------------------------------------|
|---------------7--8--7--------------------5-----7-|
|-0-0--5--7--------------8-----8-----8--3-----4----|
|-0-0-------0-0-------------8-----8----------------|
  . .       . .

(Gasoline Fire its the perfect combination)
|----------------------------------------------------------------------------|\
|----------------------------------------------------------------------------| \
|----------------------------------------------------------------------------|  \
|------0h5h7-0h5h7-------0h5h7-0h5h7-----------------------------------------|   |
|------------------------------------------0h8h10-0h8h10-------0h8h10-0h8h10-|   |
|-0-0---------------0-0---------------8-8-----------------8-8----------------|   |
  . .               . .               . .                 . .                    | x2
|----------------------------------------------------------------------------|   |
|----------------------------------------------------------------------------|   |
|----------------------------------------------------------------------------|   |
|----------------------------------------------------------------------------|  /
|------0h5h7-0h5h7-------0h5h7-0h5h7-------0h5h7-0h5h7-------0h7h8p0-7-------| /
|-5-5---------------5-5---------------5-5---------------0-0------------------|/
  . .               . .               . .               . .

(They'll See a fire Through the dark)
									    t   t    t   t
|-------------------------------------------------------------------------|-----------------| x2
|-------------------------------------------------------------------------|-----------------|
|-------------------------------------------------------------------------|-----------------|
|-------------------------------------------------------------------------|-----5--------7--|
|0~---0-8~--8~--5~--5-7~--7~--3~--3-5~---5~-------------------------------|-3--------4------|
|0~---0-8~--8~--5~--5-7~--7~--3~--3-5~---5~------0--0--0-0-0--0--0--0-0-0-|-----------------|
                                                 .  .  . . .  .  .  . . .  ^ First ending
|----------------|
|----------------|
|----------------|
|----3---2---3~--|
|----5---4---5~--|
|------0---0-----|
       .   .  ^ Second ending

(I am the light)
|--------------------------------------------------------------------|\
|--------------------------------------------------------------------| \
|--------------------------------------------------------------------|  \
|--------------------------------------------------------------------|   |
|--------5-------7-------8-------10-------5-------7-------8-------10-|   |
|--0-0-0---0-0-0---0-0-0---0-0-0----8-8-8---8-8-8---8-8-8---8-8-8----|   |
   . . .   . . .   . . .   . . .    . . .   . . .   . . .   . . .        | x3
|--------------------------------------------------------------------|   |
|--------------------------------------------------------------------|   |
|--------------------------------------------------------------------|   |
|--------------------------------------------------------------------|  /
|---------5-5-5-5---------7-7-7-7---------3---------------------4----| /
|-5-5-5-5---------5-5-5-5---------3-3-3-3-3-3-3-3-2-2-2-2-0h2h3------|/
  . . . .         . . . .         . . . .   . . . . . . . . . .



(Let You down)
|--------------------| x4 (backup guitarist continues this riff until song is over)
|--------------------|
|--------------------|
|--------------------|
|-0-0-0-0---0-0-0-0--|
|-0-0-0-0---0-0-0-0--|
  . . . .   . . . .
           
(They'll suspect But they'll never prove)
|----------------------------------------------------------------------------------------| x4
|----------------------------------------------------------------------------------------|
|-------------------------------------------------------------------------------------7--|
|------------------5/8-7-----------5/8-7-------8/10-8~--5/8-7----------------------------|
|-------------------------5/7-8-8~-------5/7-8----------------5/7-8-8~--8/10-8-7---------|
|-*pickslide*--0-0---------------------------------------------------------------8-10----|
										      +

| /  slide up
| \  slide down
| h  hammer-on
| p  pull-off
| ~  vibrato
| +  harmonic
| x  Mute note
| t  Tremelo
| .  Palm mute
===============================================================================
comments
print report bad tab
I want to post or [tab]
guest
You may want to rate the tab now too:
select rating
Please do not post tabs as comments. Select "correction" instead!