Oops, an error
Loading. Please wait.

I Knew I Couldnt Trust You Bass Tab

version 1
version 1

Whole song

Interactive

297 views 1 this week
no commentswrite comment
1 2 3 4 5
3 more votes to show rating
add to favorites
launch autoscroll
font size
0
reset
guitar tuner
Autoscroll
slow
fast
+/-
esc
set tempo
stop
Help us to improve Ultimate-Guitar.com Take our survey!
×
Author
Tuning
C# G# C# F# A# D#
+++++++++++++++++++++++++++++++++++++++++++
| Silverstein- I Knew I Couldnt Trust You |
+++++++++++++++++++++++++++++++++++++++++++


"We're better off this way..."


Tuning: Drop C# (C#ADG)



Intro
"I knew I couldnt trust you..."
1.
G||--------------------------------------------------------------------------|
D||--------------------------------------------------------------------------|
A||-11111111----------------------------11111111-----------------------------|
C#|----------00000000-22222222-55555555----------00000000-44444444-4x--------|

Verse
"You're holding something in tonight..."
2.
G||---------------------------------------------------------------------|
D||---------------------------------------------------------------------|
A||-11-111-1---------11-111-1-------------111-1-------------------------|
C#|---------55-555-5---------55-544-4x---------00-000-022-222-222-22020-|

"Cross your arms..."
3.
G||---------------------------------------------------------------------|
D||---------------------------------------------------------------------|
A||-11-111-1---------11-111-1-------------111-1-------------------------|
C#|---------55-555-5---------55-544-4x---------00-000-022-222-22x-------|

"I've let you down..."
4.
G||-------------------------------------------------------------------------|
D||-------------------------------------------------------------------------|
A||-11111111-44444444-11111111----------11111111-44444444-------------------|
C#|----------------------------55555555-------------------44444444-42454202-|

"I promised you I'd..."
5.
G||-------------------------------------------------------------------------|
D||-------------------------------------------------------------------------|
A||-11111111-44444444-11111111----------11111111-44444444-------------------|
C#|----------------------------55555555-------------------44444444-4x-------|

Verse
"You're gonna bet it all..."
6.
G||---------------------------------------------------------------------|
D||---------------------------------------------------------------------|
A||-11-111-1---------11-111-1-------------111-1-------------------------|
C#|---------55-555-5---------55-544-4x---------00-000-022-222-222-22020-|

"And I could see through you..."
7.
G||---------------------------------------------------------------------|
D||---------------------------------------------------------------------|
A||-11-111-1---------11-111-1-------------111-1-------------------------|
C#|---------55-555-5---------55-544-4x---------00-000-022-222-22x-------|

Chorus
"I've let you down..."
8.
G||-------------------------------------------------------------------------|
D||-------------------------------------------------------------------------|
A||-11111111-44444444-11111111----------11111111-44444444-------------------|--x2
C#|----------------------------55555555-------------------44444444-42454202-|

Outro
"My loss, your gain..."
9.
G||-------------------------------------------------------------------------|
D||-------------------------------------------------------------------------|
A||-------------------------------------------------------------------------|
C#|-2222x----2222x----55555555-55555555-2222x----2222x----55555555-55555555-|

Bridge
"Hold in the pain..."
10.
G||-------------------------------------------------------------------------|
D||-------------------------------------------------------------------------|
A||-------------------------------------------------------------------------|--x2
C#|-22222222-22222222-55555555-55555555-00000000-00000000-55554444-22224444-|

"Friends are in vain..."
11.
G||--------------------------------------------------------------------------|
D||--------------------------------------------------------------------------|
A||--------------------------------------------------------------------------|
C#|-22222222-22222222-55555555-55555555-0~----------------5~--4~---2~--4~----|

12.
G||--------------------------------------------------------------|
D||--------------------------------------------------------------|
A||-1~-----------------------------------------------------------|
C#|--------------------------------------------------------------|

Chorus
"I knew I couldnt trust you..."
13.
G||--------------------------------------------------------------------------|
D||--------------------------------------------------------------------------|
A||-11111111----------------------------11111111-----------------------------|
C#|----------00000000-22222222-55555555----------00000000-44444444-4x--------|

"I've let you down..."
14.
G||-------------------------------------------------------------------------|
D||-------------------------------------------------------------------------|
A||-11111111-44444444-11111111----------11111111-44444444-------------------|
C#|----------------------------55555555-------------------44444444-42454202-|

"I promised you I'd..."
15.
G||-------------------------------------------------------------------------|
D||-------------------------------------------------------------------------|
A||-11111111-44444444-11111111----------11111111-44444444-------------------|
C#|----------------------------55555555-------------------44444444-4x-------|

Outro
16.
G||--------------------|
D||--------------------|
A||-1~x----------------|
C#|--------------------|


Please rate thanks!!!



Lyrics:

I knew I couldn't trust you back when we were kids.
You sold me out, you ran and hid 
from all your problems. Can't even face your friends, 
your best friend.

You're holding something in tonight
and I can tell you're not alright.
Your poker face concealing
All the cards that you're not dealing.
Cross your arms, avert your eyes;
you're like a child ashamed to cry.
The words inside your head,
when I find out you'll wish you said:

"I've let you down 
so many times but I can't ever tell you this,
there is no forgiving it.
I promised you I'd 
always be there but that couldn't be less true.
It's the worst thing I could do."

You're gonna bet it all on black 
and when it's gone you'll want it back.
'Cause truth don't mix with reason 
and cheating's the ultimate treason.
And I could see through you like glass,
slither around below the grass
Garden of Eden burning, 
forbidden fruit you won't discern it.

My loss, your gain, 
it didn't have to be this way.
Across your face, 
it's so legible.

Hold in the pain, 
were better off this way.
We don't abstain, 
we're better off this way.
Friends are in vain; 
we're better off this way.
Better off this way.



+++++++++++++++++++++++++++++++++
| Raileff                       |
| Underground__Dora@Hotmail.Com |
+++++++++++++++++++++++++++++++++
Suggest correction
Give kudos to tab author, rate the tab!
1 2 3 4 5
comments
print report bad tab
guest
You may want to rate the tab now too:
select rating
Wanna post a correction for this tab? Suggest correction