Oops, an error
Loading. Please wait.

I Will Illuminate tab

version 1
version 1

Whole song

Interactive

1,578 views 1 this week
no commentswrite comment
1 2 3 4 5
x 4
add to favorites
×
Save as Personal and add changes to this tab that will be seen only by you. Learn more ›
×
You can save this tab as Personal to edit and correct it or add notes. All changes will be seen only by you. Learn more »
launch autoscroll
font size
0
reset
how to read this tab
guitar tuner
edit
Autoscroll
slow
fast
+/-
esc
set tempo
stop
Tabbed by: Joshua Garcia (joshuag523@aol.com)

Tabs for the song: I Will Illuminate by Silverstein
Please rate and let me know if you have any corrections. Thank you.


Tuning: Drop C# (C# G# C# F# A# D#)


Intro
Guitar 1:
      T       T    T
D#||------------------------|
A#||------------------------|
F#||----------13---13/14-9--|
C#||--16-9h11---------------| x8
G#||------------------------|
C#||------------------------|



Verse
Guitar 1:
      T       T    T                T       T    T                T       T    T
D#||-----------------------------|-----------------------------|-----------------------------|
A#||-----------------------------|----------14---14/15-9-------|----------15---15/17-9-------|
F#||----------13---13/14-9-------|--14-9h11--------------------|--14-9h11--------------------|
C#||--16-9h11----------------x8--|-------------------------x4--|-------------------------x4--| x2
G#||-----------------------------|-----------------------------|-----------------------------|
C#||-----------------------------|-----------------------------|-----------------------------|


Guitar 2:
D#||-------------------------------------------------------|
A#||-------------------------------------------------------|
F#||-------------------------------------------------------|
C#||--7~-----7~-----7~-----7~-----4~-----4~-----4~-----4~--| x2
G#||--4~-----4~-----4~-----4~-----0~-----0~-----0~-----0~--|
C#||--4~-----4~-----4~-----4~-----0~-----0~-----0~-----0~--|



Guitar 1:
D#||---------------------------------------|
A#||---------------------------------------|
F#||--11------9------6-7-4------6------7~--|
C#||--x-------x------x-x-x------x------x---|
G#||--9--9999-7-7777-4-5-2-2222-4-4444-5~--|
C#||---------------------------------------|
         ....   ....       ....   ....


Guitar 2:
D#||---------------------------------------------|
A#||---------------------------------------------|
F#||---------------------------------------------|
C#||--4------6------7-11-9------11----------12~--|
G#||--4------7------7-11-9------12----------12~--|
C#||--4-4444-6-6666-7-11-9-9999-11-11111111-12~--|
        ....   ....        ....    . . . .



Guitar 1:
      T       T    T
D#||------------------------|
A#||------------------------|
F#||----------13---13/14-9--|
C#||--16-9h11---------------| x4
G#||------------------------|
C#||------------------------|


Guitar 2:
D#||------|
A#||------|
F#||------|
C#||--7~--|
G#||--4~--|
C#||--4~--|



Guitar 1:
D#||---------------------------------------|
A#||---------------------------------------|
F#||--11------9------6-7-6------4------9~--|
C#||--x-------x------x-x-x------x------x---|
G#||--9--9999-7-7777-4-5-4-4444-2-2222-7~--|
C#||---------------------------------------|
         ....   ....       ....   ....


Guitar 2:
D#||---------------------------------------------|
A#||---------------------------------------------|
F#||---------------------------------------------|
C#||--4------6------7-11-9------11----------12~--|
G#||--4------7------7-11-9------12----------12~--|
C#||--4-4444-6-6666-7-11-9-9999-11-11111111-12~--|
        ....   ....        ....    . . . .


Pre-Chorus
Guitar 1:
D#||----------|
A#||----------|
F#||--11--11--|
C#||--x---x---|
G#||--9---9---|
C#||----------|


Guitar 2:
D#||----------|
A#||----------|
F#||----------|
C#||--4---4---|
G#||--4---4---|
C#||--4---4---|



Chorus
Guitar 1:
D#||----------------------------------------------------------------------|
A#||----------------------------------------------------------------------|
F#||--11--11--1111111111-11--11--1111999--11--11--1111111111-9--9--97777--|
C#||--x---x---x-x-x-x-x--x---x---x-x-xxx--x---x---x-x-x-x-x--x--x--xxxxx--|
G#||--9---9---9-9-9-9-9--9---9---9-9-777--9---9---9-9-9-9-9--7--7--75555--|
C#||----------------------------------------------------------------------|


D#||----------------------------------------------------|
A#||----------------------------------------------------|
F#||--6--6--66666-6--6--66444--6--6--66666-6--6--66999--|
C#||--x--x--xxxxx-x--x--xxxxx--x--x--xxxxx-x--x--xxxxx--| x2
G#||--4--4--44444-4--4--44222--4--4--44444-4--4--44777--|
C#||----------------------------------------------------|


Guitar 2:
D#||---------------------------------------------------|
A#||---------------------------------------------------|
F#||---------------------------------------------------|
C#||--4--4--44444-4--4--44444-4--4--44444-4--4--46666--|
G#||--4--4--44444-4--4--44444-4--4--44444-4--4--47777--|
C#||--4--4--44444-4--4--44444-4--4--44444-4--4--46666--|


D#||---------------------------------------------------|
A#||---------------------------------------------------|
F#||---------------------------------------------------|
C#||--7--7--77777-7--7--77222-7--7--77777-7--7--77222--| x2
G#||--7--7--77777-7--7--77222-7--7--77777-7--7--77222--|
C#||--7--7--77777-7--7--77222-7--7--77777-7--7--77222--|



Verse
Guitar 1:
      T       T    T                T       T    T                T       T    T
D#||-----------------------------|-----------------------------|-----------------------------|
A#||-----------------------------|----------14---14/15-9-------|----------15---15/17-9-------|
F#||----------13---13/14-9-------|--14-9h11--------------------|--14-9h11--------------------|
C#||--16-9h11----------------x8--|-------------------------x4--|-------------------------x4--|
G#||-----------------------------|-----------------------------|-----------------------------|
C#||-----------------------------|-----------------------------|-----------------------------|


Guitar 2:
D#||---------------------------------------------------------|
A#||---------------------------------------------------------|
F#||---------------------------------------------------------|
C#||---------------------------------------------------------|
G#||--4----4----44----4-4-4----4-4----4----44----4-4-4----4--|
C#||--4----4----44----4-4-4----4-4----4----44----4-4-4----4--|
      .    .    ..    . . .    . .    .    ..    . . .    .

D#||---------------------------------------------------------|
A#||---------------------------------------------------------|
F#||---------------------------------------------------------|
C#||---------------------------------------------------------|
G#||--0----0----00----0-0-0----0-0----0----00----0-0-0----0--|
C#||--0----0----00----0-0-0----0-0----0----00----0-0-0----0--|
      .    .    ..    . . .    . .    .    ..    . . .    .



Guitar 1:
D#||---------------------------------------|
A#||---------------------------------------|
F#||--11------9------6-7-4------6------7~--|
C#||--x-------x------x-x-x------x------x---|
G#||--9--9999-7-7777-4-5-2-2222-4-4444-5~--|
C#||---------------------------------------|
         ....   ....       ....   ....


Guitar 2:
D#||---------------------------------------------|
A#||---------------------------------------------|
F#||---------------------------------------------|
C#||--4------6------7-11-9------11----------12~--|
G#||--4------7------7-11-9------12----------12~--|
C#||--4-4444-6-6666-7-11-9-9999-11-11111111-12~--|
        ....   ....        ....    . . . .



Guitar 1:
      T       T    T
D#||------------------------|
A#||------------------------|
F#||----------13---13/14-9--|
C#||--16-9h11---------------| x4
G#||------------------------|
C#||------------------------|


Guitar 2:
D#||------------------------------|
A#||------------------------------|
F#||------------------------------|
C#||------------------------------|
G#||--4----4----44----4-4-4----4--|
C#||--4----4----44----4-4-4----4--|
      .    .    ..    . . .    .


Guitar 1:
D#||---------------------------------------|
A#||---------------------------------------|
F#||--11------9------6-7-6------4------9~--|
C#||--x-------x------x-x-x------x------x---|
G#||--9--9999-7-7777-4-5-4-4444-2-2222-7~--|
C#||---------------------------------------|
         ....   ....       ....   ....


Guitar 2:
D#||---------------------------------------------|
A#||---------------------------------------------|
F#||---------------------------------------------|
C#||--4------6------7-11-9------11----------12~--|
G#||--4------7------7-11-9------12----------12~--|
C#||--4-4444-6-6666-7-11-9-9999-11-11111111-12~--|
        ....   ....        ....    . . . .


Pre-Chorus
Guitar 1:
D#||----------|
A#||----------|
F#||--11--11--|
C#||--x---x---|
G#||--9---9---|
C#||----------|


Guitar 2:
D#||----------|
A#||----------|
F#||----------|
C#||--4---4---|
G#||--4---4---|
C#||--4---4---|



Chorus
Guitar 1:
D#||----------------------------------------------------------------------|
A#||----------------------------------------------------------------------|
F#||--11--11--1111111111-11--11--1111999--11--11--1111111111-9--9--97777--|
C#||--x---x---x-x-x-x-x--x---x---x-x-xxx--x---x---x-x-x-x-x--x--x--xxxxx--|
G#||--9---9---9-9-9-9-9--9---9---9-9-777--9---9---9-9-9-9-9--7--7--75555--|
C#||----------------------------------------------------------------------|


D#||----------------------------------------------------|
A#||----------------------------------------------------|
F#||--6--6--66666-6--6--66444--6--6--66666-6--6--66999--|
C#||--x--x--xxxxx-x--x--xxxxx--x--x--xxxxx-x--x--xxxxx--| x2
G#||--4--4--44444-4--4--44222--4--4--44444-4--4--44777--|
C#||----------------------------------------------------|


Guitar 2:
D#||---------------------------------------------------|
A#||---------------------------------------------------|
F#||---------------------------------------------------|
C#||--4--4--44444-4--4--44444-4--4--44444-4--4--46666--|
G#||--4--4--44444-4--4--44444-4--4--44444-4--4--47777--|
C#||--4--4--44444-4--4--44444-4--4--44444-4--4--46666--|


D#||---------------------------------------------------|
A#||---------------------------------------------------|
F#||---------------------------------------------------|
C#||--7--7--77777-7--7--77222-7--7--77777-7--7--77222--| x2
G#||--7--7--77777-7--7--77222-7--7--77777-7--7--77222--|
C#||--7--7--77777-7--7--77222-7--7--77777-7--7--77222--|



Bridge
Guitar 1:
D#||-----------------------------------|
A#||-----------------------------------|
F#||-----------------------------------|
C#||-----7-------7-------7-------7-----|
G#||-----------------------------------|
C#||--4-----4-4-----4-4-----4-4-----4--|


Guitar 1/2:
D#||-----------------------------------|-----------------------------------|
A#||-----------------------------------|-----------------------------------|
F#||-----------------------------------|-----------------------------------|
C#||--4-------4-------4-------4--------|-----2-------2-------2-------2-----|
G#||-----------------------------------|-----------------------------------|
C#||-----0--0----0--0----0--0----0--0--|--3-----3-3-----3-3-----3-3-----3--|


D#||-----------------------------------|-----------------------------------|
A#||-----------------------------------|-----------------------------------|
F#||-----------------------------------|-----------------------------------|
C#||--0-------0-------0-------0--------|-----7-------7-------7-------7-----|
G#||-----------------------------------|-----------------------------------|
C#||-----0--0----0--0---0--0-----0--0--|--4-----4-4-----4-4-----4-4-----4--|


D#||-----------------------------------|-----------------------------------|
A#||-----------------------------------|-----------------------------------|
F#||-----------------------------------|-----------------------------------|
C#||--7-------7-------7-------7--------|-----0-------0-------0-------0-----|
G#||-----------------------------------|-----------------------------------|
C#||-----3--3----3--3----3--3----3--3--|--0-----0-0-----0-0-----0-0----0---|


D#||---------------------------------------|
A#||---------------------------------------|
F#||---------------------------------------|
C#||-----0------0--------------------------|
G#||---------------------------------------|
C#||--0-----0-0-----0-0---0---0-0---0---0--|



Breakdown
Guitar 1:
D#||-----------------------------------|-----------------------------------|
A#||-----------------------------------|-----------------------------------|
F#||-----------------------------------|-----------------------------------|
C#||-----7~------7~------7~------7~----|--7~------7~------7~------7~-------|
G#||-----------------------------------|-----------------------------------|
C#||--4~----4~4~----4~4~----4~4~----4~-|-----3~-3~---3~-3~---3~-3~---3~-3~-|


Guitar 2:
D#||-----------------------------------|-----------------------------------|
A#||-----------------------------------|-----------------------------------|
F#||-----------------------------------|-----------------------------------|
C#||-----------------------------------|-----------------------------------|
G#||-----------------------------------|-----------------------------------|
C#||--4~-7~-4~4~-7~-4~4~-7~-4~4~-7~-4~-|--7~-3~-3~7~-3~-3~7~-3~-3~7~-3~-3~-|


Guitar 1/2:
D#||-----------------------------------|-----------------------------------|
A#||-----------------------------------|-----------------------------------|
F#||-----------------------------------|------------------6-6-6-6-6-6-6-6--|
C#||-----0~------0~------0~------0~----|--0-0-0-0-0-0-0-0-7-7-7-7-7-7-7-7--|
G#||-----------------------------------|--0-0-0-0-0-0-0-0-4-4-4-4-4-4-4-4--|
C#||--0~----0~0~----0~0~----0~0~----0~-|--0-0-0-0-0-0-0-0------------------|
                                          . . . . . . . .


Bridge
Guitar 1/2:
D#||-------------------------------|
A#||-------------------------------|
F#||-------------------------------|
C#||--7~----------7-7~----------/--|
G#||--4~----------4-4~----------/--|
C#||--4~----------4-4~----------/--|


Guitar 1:
      T       T    T                T       T    T
D#||-----------------------------|-----------------------------|
A#||----------14---14/15-9-------|----------15---15/17-9-------|
F#||--14-9h11--------------------|--14-9h11--------------------|
C#||-------------------------x4--|-------------------------x4--|
G#||-----------------------------|-----------------------------|
C#||-----------------------------|-----------------------------|


Guitar 2:
D#||--------------------|
A#||--------------------|
F#||--------------------|
C#||--4~----------4-4~--|
G#||--0~----------0-0~--|
C#||--0~----------0-0~--|



Pre-Chorus
Guitar 1:
D#||----------|
A#||----------|
F#||--11--11--|
C#||--x---x---|
G#||--9---9---|
C#||----------|


Guitar 2:
D#||----------|
A#||----------|
F#||----------|
C#||--4---4---|
G#||--4---4---|
C#||--4---4---|



Chorus
Guitar 1:
D#||----------------------------------------------------------------------|
A#||----------------------------------------------------------------------|
F#||--11--11--1111111111-11--11--1111999--11--11--1111111111-9--9--97777--|
C#||--x---x---x-x-x-x-x--x---x---x-x-xxx--x---x---x-x-x-x-x--x--x--xxxxx--|
G#||--9---9---9-9-9-9-9--9---9---9-9-777--9---9---9-9-9-9-9--7--7--75555--|
C#||----------------------------------------------------------------------|


D#||----------------------------------------------------|
A#||----------------------------------------------------|
F#||--6--6--66666-6--6--66444--6--6--66666-6--6--66999--|
C#||--x--x--xxxxx-x--x--xxxxx--x--x--xxxxx-x--x--xxxxx--| x2
G#||--4--4--44444-4--4--44222--4--4--44444-4--4--44777--|
C#||----------------------------------------------------|


Guitar 2:
D#||---------------------------------------------------|
A#||---------------------------------------------------|
F#||---------------------------------------------------|
C#||--4--4--44444-4--4--44444-4--4--44444-4--4--46666--|
G#||--4--4--44444-4--4--44444-4--4--44444-4--4--47777--|
C#||--4--4--44444-4--4--44444-4--4--44444-4--4--46666--|


D#||---------------------------------------------------|
A#||---------------------------------------------------|
F#||---------------------------------------------------|
C#||--7--7--77777-7--7--77222-7--7--77777-7--7--77222--| x2
G#||--7--7--77777-7--7--77222-7--7--77777-7--7--77222--|
C#||--7--7--77777-7--7--77222-7--7--77777-7--7--77222--|



Outro
Guitar 1:
D#||---------------------------------------|
A#||---------------------------------------|
F#||--11------9------6-7-6------4------9~--|
C#||--x-------x------x-x-x------x------x---|
G#||--9--9999-7-7777-4-5-4-4444-2-2222-7~--|
C#||---------------------------------------|
         ....   ....       ....   ....


Guitar 2:
D#||---------------------------------------------|
A#||---------------------------------------------|
F#||---------------------------------------------|
C#||--4------6------7-11-9------11----------12~--|
G#||--4------7------7-11-9------12----------12~--|
C#||--4-4444-6-6666-7-11-9-9999-11-11111111-12~--|
        ....   ....        ....    . . . .


Guitar 1:
D#||----------|
A#||----------|
F#||--11--11--|
C#||--x---x---|
G#||--9---9---|
C#||----------|


Guitar 2:
D#||----------|
A#||----------|
F#||----------|
C#||--4---4---|
G#||--4---4---|
C#||--4---4---|




Tablature Legend
----------------
 h   hammer-on
 p   pull-off
 b   bend
 pb  pre-bend
 r   release bend
 ~   hold / vibrato
 .   palm mute
 /   slide up
 \   slide down
 *   pinch harmonic
 '   natural harmonic
 x   mute note
 T   tap

            
            
Suggest correction
Creating personal tab
Creating personal tab
You can edit any tab online and save it as your Personal.

You can edit, replace or remove any tab part or add personal notes – all changes will be seen only by you.

Personal tabs can be accessed anytime from any device, even offline.
Learn more »
comments
print report bad tab
guest
You may want to rate the tab now too:
select rating
Wanna post a correction for this tab? Suggest correction