Oops, an error
Loading. Please wait.

Ides Of March Bass Tab

version 1
version 1

Whole song

Interactive

2,760 views 3 this week
2 commentsread comments
1 2 3 4 5
x 3
add to favorites
launch autoscroll
font size
0
reset
guitar tuner
Autoscroll
slow
fast
+/-
esc
set tempo
stop
Help us to improve Ultimate-Guitar.com Take our survey!
×
Author
Difficulty
intermediate
IDES OF MARCH

Tuning:Dropped D

intro-gradually turn volume from 0 to 10
|----|
|----|
|----|
|-0~-|

verse
|-----------------|x2
|-----------------|
|-----------------|
|-9-99-9p09-9-9-9-|

|----------------|x2
|----------------|
|----------------|
|-0-00-000-0-0-0-|
all that x2

pre-chorus
|----------------|
|----------------|
|-2~----------0~-|
|-------0~-------|

|--------------------------|
|--------------------------|
|-2~----------0~--00000000-|
|-------0~-----------------|

chorus
|---------------------------------|
|---------------------------------|
|-22222222-----------------------0|
|---------00000000222222222555545-|

|--------------------------------------|
|--------------------------------------|
|-22222222---------------------00000000|
|---------000000002222222225555--------|

verse
|-----------------|x2
|-----------------|
|-----------------|
|-9-99-9p09-9-9-9-|

|----------------|x2
|----------------|
|----------------|
|-0-00-000-0-0-0-|
all that x2
then
|-----------|
|-----------|
|-0h24h5p40-|
|-----------|

chorus
|---------------------------------|
|---------------------------------|
|-22222222-----------------------0|
|---------00000000222222222555545-|

|--------------------------------------|
|--------------------------------------|
|-22222222---------------------00000000|
|---------000000002222222225555--------|
all this x2

bridge-wait
|-----------------------------------------------------------|
|-----------------------------------------------------------|
|---2-2-2-4-5-4-5-2-2-2-4-5-4-5-------4-5-4-5-0-0-0-5-4-2-0-|
|-9\----------------------------5-5-5-----------------------|

|------------------------------------------------------------|
|------------------------------------------------------------|
|-2-2-2-4-5-4-5-2-2-2-4-5-4-5-------4-5-4-5-0-0-0-4h5p4h5p40-|
|-----------------------------5-5-5--------------------------|

|---------------------------------------------------------|
|---------------------------------------------------------|
|-2-2-2-4-5-4-5-2-2-2-4-5-4-5-------4-5-4-5-0-0-0-5-4-2-0-|
|-----------------------------5-5-5-----------------------|

|------------------------------------------------------------|
|------------------------------------------------------------|
|-2-2-2-4-5-4-5-2-2-2-4-5-4-5-------4-5-4-5-0-0-0-4h5p4h5p40-|
|-----------------------------5-5-5--------------------------|

pre-chorus
|----------------|
|----------------|
|-2~----------0~-|
|-------0~-------|

|--------------------------|
|--------------------------|
|-2~----------0~--00000000-|
|-------0~-----------------|

chorus
|---------------------------------|
|---------------------------------|
|-22222222-----------------------0|
|---------00000000222222222555545-|

|--------------------------------------|
|--------------------------------------|
|-22222222---------------------00000000|
|---------000000002222222225555--------|
all this x2

outro
|-----------------|
|-----------------|
|-2-2-2-4-5-4-0-2-|
|-----------------|
===========================================================================
Suggest correction
Give kudos to tab author, rate the tab!
1 2 3 4 5
comments
print report bad tab
2 comments total.
0 reply
RaiLeff 12,922 May 17, 2007 09:31 PM

Shit great tab
I love this song

0 reply
antoni! 10 Jan 28, 2010 07:05 PM

|-----------|
|-----------|
|-0h24h5p40-|
|-----------|

I can't hear this part in the song, or when they play it live. However, the rest is spot on and deserves a 5star rating.

guest
You may want to rate the tab now too:
select rating
Wanna post a correction for this tab? Suggest correction