Oops, an error
Loading. Please wait.

Ides Of March Tab

version 2
version 2

Intro

Whole song

Interactive

6,407 views 1 this week
6 commentsread comments
1 2 3 4 5
x 12
add to favorites
launch autoscroll
font size
0
reset
how to read this tab
guitar tuner
Autoscroll
slow
fast
+/-
esc
set tempo
stop
Help us to improve Ultimate-Guitar.com Take our survey!
×
Author
Tuning
D A D G B E
 Tabbed by:Alden Schulte
 Tuning: Drop-D (DADGBE)

------------------------------------------
 (Added 6/8/06)
 this is before the song starts, just right before the intro.

E|--------------------------------|
B|--------------------------------|
G|--------------------------------|
D|-------b11r---------b11r--------|
A|------------9--------------9----| then into intro.
D|--------------------------------|

-------------------------------------------------------------

    Intro (main riff)
                      (fixed on 5/5/06)

                 Guitar 1           THIS IS PERFECT.
               -----------

 E|------------------------------------------------------|
 B|------------------------------------------------------|
 G|------------------------------------------------------|
 D|-----11b--9---------11b--9-------11b--7--------11b--7-|
 A|---9--------------9------------9-------------9--------|
 D|-9--------------9------------0-------------0----------|
 
    the bend goes back, just listen to the song to see how it goes.
  
---------------------------------------------------------------------
              (just figured this out, think it's right.)
                    
                          Guitar 2  
                       -------------

 E|-------------12-----|
 B|-----------------12-|
 G|--9--9/11-----------| (Added on 5/15/06) 
 D|--------------------| 
 A|--------------------|
 D|--------------------|


 Please rate my tab. How good is it?
Suggest correction
comments
print report bad tab
6 comments total. Showing first comments.
0 reply
tfk011 22 Jan 19, 2006 02:31 PM

watch the video that comes with the cd and you will see the way he actually plays it.

0 reply
blink_your_eyes 10 Apr 27, 2006 08:30 PM

Could you please tab the whole song? I've been looking for it and can't find it anywhere. And I'm too lazy to figure it our myself right now.

0 reply
12345678910 82 Apr 27, 2006 09:08 PM

There's a full tab at:
http://www.911tabs.com/link/?2263373
But I don't know if it's quite right.

guest
You may want to rate the tab now too:
select rating
Wanna post a correction for this tab? Suggest correction