Oops, an error
Loading. Please wait.

Ides Of March Bass Tab

version 2
version 2

Whole song

Interactive

338 views 1 this week
no commentswrite comment
1 2 3 4 5
2 more votes to show rating
add to favorites
launch autoscroll
font size
0
reset
guitar tuner
Autoscroll
slow
fast
+/-
esc
set tempo
stop
Help us to improve Ultimate-Guitar.com Take our survey!
×
Author
Difficulty
novice
Band  .:. Silverstein
Song  .:. Idles of March
Album .:. Discovering the Waterfront

I already submitted the tab but I put it under the wrong name

G |----------------|----------------|----------------|----------------||
D |----------------|----------------|----------------|----------------||
A |222-0202-2X2-22X|222-0202-2X2-22X|----------------|----------------||
D |----------------|----------------|000-0000-0X0-00X|000-0000-0X0-00X|| x2

G |----------------||
D |----------------||
A |2-----0---------||
D |---0------------|| x2

G |----------------|----------------||
D |----------------|----------------||
A |222-2222--------|----------------||
D |--------000-0000|222-2222-555-777|| x2

G |----------------|----------------|----------------|----------------||
D |----------------|----------------|----------------|----------------||
A |222-0202-2X2-22X|222-0202-2X2-22X|----------------|----------------||
D |----------------|----------------|000-0000-0X0-00X|000-0000-0X0-00X|| x2

G |----------------|----------------||
D |----------------|----------------||
A |222-2222--------|----------------||
D |--------000-0000|222-2222-555-777|| x4

G |----------------||
D |----------------||
A |2-222-4-5-4-5--||
D |----------------||

G |----------------|----------------|----------------||
D |----------------|----------------|----------------||
A |2-222-4-5-4-5---|-----4-5-4-5----|-----7-5-4-0----||
D |----------------|5-555-----------|7-777-----------||

G |----------------|----------------|----------------|----------------||
D |----------------|----------------|----------------|----------------||
A |2-222-4-5-4-5---|2-222-4-5-4-5---|-----4-5-4-5----|-----7-5-4-0----||
D |----------------|----------------|5-555-----------|7-777-----------|| x3

G |----------------||
D |----------------||
A |2-----0---------||
D |---0------------||

G |----------------|----------------||
D |----------------|----------------||
A |222-2222--------|----------------||
D |--------000-0000|222-2222-555-777|| x4

G |----------------||
D |----------------||
A |2-222-4-5-4-0-2-||
D |----------------||
Suggest correction
Give kudos to tab author, rate the tab!
1 2 3 4 5
comments
print report bad tab
guest
You may want to rate the tab now too:
select rating
Wanna post a correction for this tab? Suggest correction